Song name
# A B C D E F G H I J K L M N O P Q R S T U V W X Y Z

Soundtrack Of Our Lives - Century Child tab

Help us improve GuitareTab! Take a short survey!
Chords: EADGBe
Em      022000
Bmadd11 024430
D       xx0232
C       x32010
Dsus2   xx0230
G       320033
A       x02220
B       x24442


Intro: Em (another guitar seems to play Emadd9 - 022002)


Verse:

Part 1:

   Em      Bmadd1   Em      D        C
E-|0-------0-------|0-------2----0--|0-------0----0--|
B-|-----0-------0--|-----0-----3----|-----1-----1----|
G-|---0-------4----|---0------------|---0------------|
D-|-(2)-----(4)----|-(2)-----(0)----|-(2)-----(2)----|  x2
A-|----------------|----------------|----------------|
E-|----------------|----------------|----------------|

Part 2:

   C       D       Em       Bmadd1      C
E-|--0-------2-----0-------|0-2------2-0------|
B-|----1-------3--------0--|-------0--------1-|
G-|0-----0-2-----2----0----|-----4--------0---|
D-|-----------------(2)----|---(4)------(2)---|
A-|------------------------|------------------|
E-|------------------------|------------------|

   C       D       Em       D           C
E-|--0-------2-----0-------|0-2------2--0-------0-----0--|
B-|----1-------3--------0--|-------3---------1-----1-----|
G-|0-----0-2-----2----0----|-----2---------0-------------|
D-|-----------------(2)----|---(0)-------(2)-----(2)-----|
A-|------------------------|-----------------------------|
E-|------------------------|-----------------------------|

Repeat first part while slide guitar plays this:

   Em      Bmadd1       Em           D             C
E-|--------------------|--------------------------|----------------|
B-|--------------------|--------------------------|----------------|
G-|9\4--/9--9/11\7--11-|11/12\9--12--12/14\11--14-|14/16-----------|
D-|--------------------|--------------------------|----------------|
A-|--------------------|--------------------------|----------------|
E-|--------------------|--------------------------|----------------|


The second verse is the same except for the slide guitar part, which isn't played.

Instead it goes the middle eight:

   Em              Dsus2           G     Dsus2 A    Em
E-|0--------------|0--------------|3-----0-----0--|0--------------|
B-|0--------------|3--------------|3-----3-----2--|0--------------|
G-|0--------------|2--------------|0-----2-----2--|0--------------|
D-|2--------------|0--------------|0-----0-----2--|2--------------|
A-|2--------------|---------------|2-----------0--|2--------------|
E-|0--------------|---------------|3--------------|0--------------|

   Em              Dsus2           G     Dsus2 A    B
E-|0--------------|0--------------|3-----0-----0--|2--------------|
B-|0--------------|3--------------|3-----3-----2--|4--------------|
G-|0--------------|2--------------|0-----2-----2--|4--------------|
D-|2--------------|0--------------|0-----0-----2--|4--------------|
A-|2--------------|---------------|2-----------0--|2--------------|
E-|0--------------|---------------|3--------------|---------------|

The slide guitar plays this during the middle eight:

   Em              Dsus2           G     Dsus2 A   Em
E-|---------------|---------------|---------------|---------------|
B-|---------------|---------------|---------------|---------------|
G-|9--------------|9/11-----------|7-----4----/11-|9--------------|
D-|---------------|---------------|---------------|---------------|
A-|---------------|---------------|---------------|---------------|
E-|---------------|---------------|---------------|---------------|

   Em              Dsus2           G     Dsus2 A   B
E-|---------------|---------------|---------------|---------------|
B-|---------------|---------------|---------------|---------------|
G-|9--------------|9/11-----------|7-----4----/11-|11-------------|
D-|---------------|---------------|---------------|---------------|
A-|---------------|---------------|---------------|---------------|
E-|---------------|---------------|---------------|---------------|


Last verse is like the second one, but repeating the part 2 of the verse.

The outro is like part 1 of the verse. The slide guitar goes like this:

   Em      Bmadd1       Em         D             C
E-|--------------------|------------------------|----------------|
B-|--------------------|------------------------|----------------|
G-|--------------------|------------------------|----------------|
D-|9/14----16\11-------|9/14------16\11---11-11-|11/12-----------| x3
A-|--------------------|------------------------|----------------|
E-|--------------------|------------------------|----------------|

   Em      Bmadd1       Em           D             C
E-|--------------------|--------------------------|--------------|
B-|--------------------|--------------------------|--------------|
G-|9\4--/9--9/11\7--11-|11/12\9--12--12/14\11--14-|14/16---------|
D-|--------------------|--------------------------|--------------|
A-|--------------------|--------------------------|--------------|
E-|--------------------|--------------------------|--------------| 

Related for Century Child tab