Guitaretab - guitar tabs
Song name
# A B C D E F G H I J K L M N O P Q R S T U V W X Y Z

Sourpuss - Tabouli tab

Tabouli - Sourpuss

Intro                       |-------b------|                                |-------b-------|
e|-----------------------------------------------------------------------------------------------|
b|-----------------------------------------------------------------------------------------------|
g|--------1-----------------3--3--3--3--3--3--------------1-----------------3--3--3--3--3--3-----|
d|-----------2--------------------------------5--7-----------2--------------------------------5--|
a|--2--2--------2--2--3--3--------------------5--7--2--2--------2--2--3--3--------------------5--|
E|--------------------------------------------3--5--------------------------------------------3--|

--------------|
--------------|
--------------|
--7--5--4--2--|
--7--5--4--2--|
--5--3--2--0--|

Verse (G1)
e|--------------------|
b|--------------------|
g|-----5--------------|
d|--2--5--5--7--5--4--|
a|--2--3--5--7--5--4--|
E|--0-----3--5--3--2--|

Verse (G2)
e|--------------------------------------------------------------|
b|--------------------------------------------------------------|
g|--------------------------------------------------------------|
d|--2--2--2--0-----------0-----------------2--2--0--0--------0--|
a|--------------3--3--3-----2-----------0--------------4--4-----|
E|-----------------------------3--3--3--------------------------|

Oh no, Im not happy til you... (G1)
e|-----------------------------------------------------------------------------------|
b|-----------------------------------------------------------------------------------|
g|-----------------------------------------------------------------------------------|
d|-----------------------------------------------0--0--0--0--------------------------|
a|-----2--2--2--2--2--2-----------------------2--------------3--2--3--3--3--3--3--3--|
E|--2--------------------0--3--3--3--3--3--3-----------------------------------------|

Oh no, Im not happy til you... (G2)
e|--2--2--2--2--3--2--2--2--2--2--3--2--2--2--2--2--3--2--2--2--2--2--3s7--5--------5--7--5-----|
b|----------------------------------------------------------------------------7--7-----------7--|
g|----------------------------------------------------------------------------------------------|
d|----------------------------------------------------------------------------------------------|
a|----------------------------------------------------------------------------------------------|
E|----------------------------------------------------------------------------------------------|
[ Tab from: http://www.guitaretab.com/s/sourpuss/57038.html ]
-----5--7-----------------------------------------------------------------------------------7---|
--7--------7--7--8--7--7--7--7--7--8--7--7--7--7--7--8--7--7--7--7--7--8--7--7--7--7--7--8------|
------------------------------------------------------------------------------------------------|
------------------------------------------------------------------------------------------------|
------------------------------------------------------------------------------------------------|
------------------------------------------------------------------------------------------------|

--5--------5--7--5--------5--7--5-----------7--5--------5--7--5--------5--7--5-----------7--5---|
-----7--7-----------7--7-----------7--7--8--------7--7-----------7--7-----------7--7--8---------|
------------------------------------------------------------------------------------------------|
------------------------------------------------------------------------------------------------|
------------------------------------------------------------------------------------------------|
------------------------------------------------------------------------------------------------|

--------5--7--5--------5--7--5--------------------------5--|
--7--7-----------7--7-----------7--7--7--7--7--7--7--8-----|
-----------------------------------------------------------|
-----------------------------------------------------------|
-----------------------------------------------------------|
-----------------------------------------------------------|

Outro Part 1
e|--------------|
b|--------------|
g|--4-----7--5--|
d|--4--5--7--5--|
a|--2--5--5--3--|
E|-----3--------|

Outro Part 2A
e|--------------2--------------2--------------2--3--2--3--2--------------2---------------2--------|
b|--------3--3-----------3--3-----------3--3-----------------------3--3------------3--3-----------|
g|--4--4-----------4--4-----------4--4-----------------------4--4------------4--4-----------4--4--|
d|------------------------------------------------------------------------------------------------|
a|------------------------------------------------------------------------------------------------|
E|------------------------------------------------------------------------------------------------|

e|--------2--3--2--3--5--7--5--2--|
b|--3--3--------------------------|
g|--------------------------------|
d|--------------------------------|
a|--------------------------------|
E|--------------------------------|

Outro Part 2B
e|--5--7--5--------5--7--5--------5--7--5-----------5--7--5--------5--7--5--------5--7--5--------|
b|-----------7--7-----------7--7-----------7--7--8-----------7--7-----------7--7-----------7--7--|
g|-----------------------------------------------------------------------------------------------|
d|-----------------------------------------------------------------------------------------------|
a|-----------------------------------------------------------------------------------------------|
E|-----------------------------------------------------------------------------------------------|

-----5-----|
--8-----7--|
-----------|
-----------|
-----------|
-----------|
Related for Tabouli tab