Guitaretab - guitar tabs
Song name
# A B C D E F G H I J K L M N O P Q R S T U V W X Y Z

Sourpuss - Mattress tab

Mattress - Sourpuss


e|---------------------------------------------------------------|
b|---------------------------------------------------------------|
g|-----------------------------------------------------------|
d|------------2--------------------------------------------------|
a|--00-2-0-2---3-3-33-3-332--5---------------7---------------|	
E|-------------------------------3-3-3-3-3-3-3-3-5-5-5-5-5-5-5-5-|


e|---------------------------------------------------------------|
b|---------------------------------------------------------------|
g|-----------------------------------------------------------|
d|------------2------------------5-5-5-5-5-5-5-5-7-7-7-7-7-7-7-7-|
a|--00-2-0-2---3-3-33-3-333--5-5-5-5-5-5-5-5-7-7-7-7-7-7-7-7-|   
E|-------------------------------3-3-3-3-3-3-3-3-5-5-5-5-5-5-5-5-|

[ Tab from: http://www.guitaretab.com/s/sourpuss/57039.html ]
(Backing)
e|---------------------------------------------------------------|
b|---------------------------------------------------------------|
g|---------------5-5-5-5-5-5-----------------------------------|
d|--7-7-7-7-7-7--5-5-5-5-5-5--5-5-5-5-5-5--7-7-7-7-7-7-----------|
a|--55-5-5-5-5--3-3-33-3-35-5-5-5-5-5--5-5-5-5-5-5-----------|	
E|--5-5-5-5-5-5---------------3-3-3-3-3-3--5-5-5-5-5-5-----------|


(Chorus)
e|---------------------------------------------------------------|
b|---------------------------------------------------------------|
g|-----------------------------------------------------------|
d|--2-2-2-2-2--7-7-7-7-7-----------------------------------------|
a|--22-2-2-2--7-7-7-77---------------------------------------|
E|--0-0-0-0-0--5-5-5-5-5-----------------------------------------|


(Solo)
e|---------------------------------------------------------------|
b|---------------------------------------------------------------|
g|-----------------------------------------------------------|
d|--------------------------^------------4-5-7-4-5-7-4-5-7-4-2-4-|
a|--77-5-7-/12-12-12-5-5-57-10-12147-4-5-7-4-5-7-4-5-7-4-2-4-|	
E|---------------------------------------2-3-5-2-3-5-2-3-5-2-0-2-|
Related for Mattress tab