Song name
# A B C D E F G H I J K L M N O P Q R S T U V W X Y Z

Sourpuss - My Glass Slipper tab

My Glass Slipper - Sourpuss

e|--------------------------------------------|
b|--------------------------------------------|
g|--------------------------------------------|
d|--------------------------------------------|
a|-----------0--5--4--3-----------0--5--4--3--|
E|--0--0--3--------------0--0--3--------------|

e|--------------|
b|--------------|
g|--------------|
d|--7--3--5--2--|
a|--7--3--5--2--|
E|--5--1--3--0--|
Tap to rate this tab
# A B C D E F G H I J K L M N O P Q R S T U V W X Y Z