Song name
# A B C D E F G H I J K L M N O P Q R S T U V W X Y Z

Sourvein - Seamerchant tab

http://www.myspace.com/sourvein13
http://www.metal-archives.com/band.php?id=4710

Tabbed by pistols.
I play the song in d standard (1 whole step down.) I played along with the track 
and it sounds correct.


Riff 1 (intro / verse):
|-----------------------------------------|
|-----------------------------------------|
|-----------------------------------------|
|-5/7-7--7--5-3-5---3-5/7-7--7--5-3-5-----|
|-3/5-5--5--3-1-3---1-3/5-5--5--3-1-3--7--|
|--------------------------------------5--|

Riff 2 (chorus):
|------------------------------------------------------|
|------------------------------------------------------|
|------------------------------------------------------|
|-5/7-7--7--5-3-------------------------3/5-5--5--5-3--|
|-3/5-5--5--3-1-5---3---3-5/7-7--7--7-5-1/3-3--3--3-1--|
|---------------3---1---1-3/5-5--5--5-3----------------|

Riff 3 (bridge):
|-------------------------------------------------------|
|-------------------------------------------------------|
|-------------------------------------------------------|
|-5/7-7--7--7--5/7-7-7-5/7-7--7--7-5/7-7-7-10-10-10/12--|
|-3/5-5--5--5--3/5-5-5-3/5-5--5--5-3/5-5-5--8--8--8/10--|
|-------------------------------------------------------|

Key:
/ = slide

Listen to the track for rythm and tempo.
Very easy song, very fun to play. Also a great track from a hugely underrated band, enjoy.
Tap to rate this tab
# A B C D E F G H I J K L M N O P Q R S T U V W X Y Z