Song name
# A B C D E F G H I J K L M N O P Q R S T U V W X Y Z

South Magnolia - Life tab

Artist-South Magnolia
Song-Life
written by-Chris Ferrantello

Intro/Verse(on verse Palm Mute 1x and then strum)
e---------------------------------------------|
a---------------5-5-5-5----7-7-7-7----3-3-3-3-|
d----2-2-2-2----7-7-7-7----9-9-9-9----5-5-5-5-|
g----2-2-2-2----7-7-7-7----9-9-9-9----5-5-5-5-|
b----2-2-2-2----------------------------------|
e---------------------------------------------|

Chours
e--5-5-5-5-5-5-----8--8--8--8--8--8-------3-3-3-3-3-3----0-0-0-0-0-0-|
a--7-7-7-7-7-7----10-10-10-10-10-10-------5-5-5-5-5-5----2-2-2-2-2-2-|
d--7-7-7-7-7-7----10-10-10-10-10-10-------5-5-5-5-5-5----2-2-2-2-2-2-|
g--------------------------------------------------------------------|
b--------------------------------------------------------------------|
e--------------------------------------------------------------------|
Tap to rate this tab
# A B C D E F G H I J K L M N O P Q R S T U V W X Y Z