Song name
# A B C D E F G H I J K L M N O P Q R S T U V W X Y Z

South Magnolia - Freedom tab

Artist- South Magnolia

Song- Freedom

Tabbed By- Chris Ferrantello

Intro/Verse

E-5-5-5-5-5-5-5------------4-4---7----------------|
A-7-7-7-7-7-7-7---5--4-----6-6---9----------------|
D-7-7-7-7-7-7-7---7--6-----6-6---9----------------|
G-----------------7--6----------------------------|
B-------------------------------------------------|
E-------------------------------------------------|

Chours

E-7-7-7-7----6-6-6-6----9----9----9----9-----8----8----8-----8------------------|
A-9-9-9-9----8-8-8-8----11---11---11---11----10---10---10---10------------------|
D-9-9-9-9----8-8-8-8----11---11---11---11----10---10---10---10------------------|
G-------------------------------------------------------------------------------|
B-------------------------------------------------------------------------------|
E-------------------------------------------------------------------------------|
Tap to rate this tab
# A B C D E F G H I J K L M N O P Q R S T U V W X Y Z