Song name
# A B C D E F G H I J K L M N O P Q R S T U V W X Y Z

South Magnolia - Kids tab

Artist- South Magnolia

Song-Kids

This is the first tab ever created by South Magnolia. Hopefully they we be a great band.

Intro/Verse
E-3----------4---------------------------------|
A-5 (x6)-----6(x6)-------4--------0------------|
D-5----------6-----------6(x6)----2(x6)--------|
G------------------------6--------2------------|
B----------------------------------------------|
E----------------------------------------------|

Chours
E-2---------2------------5----------0------------|
A-2(x8)-----4(x8)--------7(x8)------2(x8)--------|
G-4---------4------------7----------2------------|
B------------------------------------------------|
E------------------------------------------------|

Bridge
E-0------------5--------------3-----------7--------------|
A-2(X4)--------7(X4)----------5(X4)-------9--------------|
D-2------------7--------------5-----------9(X4)----------|
G--------------------------------------------------------|
B--------------------------------------------------------|
E--------------------------------------------------------|
Tap to rate this tab
# A B C D E F G H I J K L M N O P Q R S T U V W X Y Z