Song name
# A B C D E F G H I J K L M N O P Q R S T U V W X Y Z

South Magnolia - Another Face In The Crowd tab

Help us improve GuitareTab! Take a short survey!
Song- Another Face In The Crowd

Artist- South Magnolia

Tabbed By- Chris Ferrantello

      Intro (guitar 1)
E-----------------------------------------------------|
A-0-4-6-4-7-5-4-3-4-3-2-3-----------------------------|
D-----------------------------------------------------|       X4
G-----------------------------------------------------|
B-----------------------------------------------------|
E-----------------------------------------------------|

Intro (guitar 2)
E-4---------------2------------------------7---------------------Power Slide--------|
A-6 Let Ring------4-Let Ring---------------9-Let Ring-------------------------------|
D-6---------------4------------------------9----------------------------------------|
G-----------------------------------------------------------------------------------|
B-----------------------------------------------------------------------------------|
E-----------------------------------------------------------------------------------|

Verse
E--4-4-4-4-4-4-4---2-2-2-2-2-2-2----7-7-7-7-7-7-7-------------|
A--6-6-6-6-6-6-6---4-4-4-4-4-4-4----9-9-9-9-9-9-9-------------|
D--6-6-6-6-6-6-6---4-4-4-4-4-4-4----9-9-9-9-9-9-9-------------|
G-------------------------------------------------------------|
B-------------------------------------------------------------|
E-------------------------------------------------------------|

Chours
E--------------------------------------------------------------------------------------------|
A-7-7-7-7-7-7-7---5-5-5-5-5-5-5---9--9--9--9--9--9--9----5-5-5-5-5-5-5-----------------------|
D-9-9-9-9-9-9-9---7-7-7-7-7-7-7---11-11-11-11-11-11-11---7-7-7-7-7-7-7-----------------------|
G-9-9-9-9-9-9-9---7-7-7-7-7-7-7---11-11-11-11-11-11-11---7-7-7-7-7-7-7-----------------------|
B--------------------------------------------------------------------------------------------|
E--------------------------------------------------------------------------------------------|
Related for Another Face In The Crowd tab