Song name
# A B C D E F G H I J K L M N O P Q R S T U V W X Y Z

South - I Know What Youre Like tab

-----------------------------------------------------------------------------
		     I know what You're like - South
-----------------------------------------------------------------------------
Tabbed by: Dombot
Email: gdom85(at)gmail.com

This is a great song written by South, but I couldn't find any tabs -at all- on the net, 
I figured posting a tab for this riff is at least a start.
It's played a few times throughout the song.
Might be more to it, but this satisfies my ears :)

Tuning: Standard

e:12-12---12-12-12---12-12-12-12/15/12------17--15-|
a:12-12---12-12-12---12-12-12-12/15/12------17--15-|
b:-------------------------------------------------|
d:-------------------------------------------------|
a:-------------------------------------------------|
E:-------------------------------------------------|

e:12-12-12-10-10-10-10/12--------------------------|
a:12-12-12-10-10-10-10/12----8--5-----10-12-10-8-5-|
b:-------------------------------------------------|
d:-------------------------------------------------|
a:-------------------------------------------------|
E:-------------------------------------------------|
Tap to rate this tab
 
# A B C D E F G H I J K L M N O P Q R S T U V W X Y Z