Song name
# A B C D E F G H I J K L M N O P Q R S T U V W X Y Z

South - Nine Lives chords

South - Nine Lives
Intro/Verse


E---4---7---4---7-|---4---7---4---7-|-------7-------7-|-------7-------7-|
B-----6-------6---|-----6-------6---|---5-0-----5-0---|---5-0-----5-0---|
G-----------------|-----------------|-----------------|-----------------|
D-4-------4-------|-4-------4-------|-----------------|-----------------|
A-----------------|-----------------|-7-------7-------|-7-------7-------|
E-----------------|-----------------|-----------------|-----------------|


E-------5-------5-|-------4-------4-|-------4-------4-|-------7-------7-|
B---5-------5-----|---4-------4-----|---5-------5-----|---7-------7-----|
G-----6-------6---|-----5-------5---|-----------------|-----------------|
D-4-------4-------|-6-------6-------|-----6-------6---|-----9-------9---|
A-----------------|-----------------|-4-------4-------|-6-------6-------|
E-----------------|-----------------|-----------------|-----------------|



Tap to rate this tab
 
# A B C D E F G H I J K L M N O P Q R S T U V W X Y Z