South - A Place In Displacement tab

This is what I got from watching the music video.

With the guitar, I am sure of the strings and frets, but the delay makes it
difficult to figure out the order and frequency the strings are hit.

Guitar (w/delay)
|-------------------------------------------------------------|
|-------------------12-----------------------------12---------|
|-------------13---------13------------------13---------13----|
|-------14-----------------------------14---------------------|
|-12-12----12----12--------------12-12----12----12------------|
|-------------------------------------------------------------|

|-------------------------------------------------------------|
|-------------------12-----------------------------12---------|
|-------------13---------13------------------13---------13----|
|-------14-----------------------------14---------------------|
|-------------------------------------------------------------|
|-12-12----12----12--------------11-11----11----11------------|

Bass
|-----------------------------------------------------------------|
|-7---6---7---9---6---7---9---7-------------------------------6---|
|---------------------------------7---4---6---7---6---7---9-------|
|-----------------------------------------------------------------|

No guitar in verse
Bass remains the same until chorus

This is my first tab and I made it mainly as a foundation for someone who
can tab the whole song. Thanks.
Tap to rate this tab
 
# A B C D E F G H I J K L M N O P Q R S T U V W X Y Z