Song name
# A B C D E F G H I J K L M N O P Q R S T U V W X Y Z

South - You Are One tab

Guitar Tabs by: South
Tabs for song: You are one
Album: Adventures in the Underground Journey to the Stars
Tabbed by: Lethal
Email: skullcalavera@hotmail.com

Send me an email for any correction. / mandenme un mail si ahy alguna correccion.
Enjoy it ! Yeah! 

Tuning: Standard

Tab symbols used:
^ = bend up
v = bend down
h = hammer on
p = pull off


 I - Lead Guitar - Guitarra principal

E|-------------------------------| 
B|-7-7-7-7-7-7-7-7-7-7-7-7-7-7-7-| x 4
G|-7-7-7-7-7-7-7-7-7-7-7-7-7-7-7-| 
D|-7-7-7-7-7-7-7-7-7-7-7-7-7-7-7-| 
A|-5-5-5-5-5-5-5-5-5-5-5-5-5-5-5-|
E|-------------------------------|

E|-------------------------------| 
B|-7/15-15-15-15-15-15-15-15-15--| 
G|-7/14-14-14-14-14-14-14-14-14--| 
D|-7/12-12-12-12-12-12-12-12-12--| 
A|-------------------------------|
E|-------------------------------|

E|-------------------------------| 
B|-20-20-20-20-20-20-20-20-20-20-| 
G|-19-19-19-19-19-19-19-19-19-19-| 
D|-17-17-17-17-17-17-17-17-17-17-| 
A|-------------------------------|
E|-------------------------------|

E|-------------------------------| 
B|-19-19-19-19-19-19-19-19-19-19-| 
G|-19-19-19-19-19-19-19-19-19-19-| 
D|-16-16-16-16-16-16-16-16-16-16-| 
A|-------------------------------|
E|-------------------------------|

E|-------------------------------| 
B|-20-20-20-20-20-20-20-20-20-20-| 
G|-19-19-19-19-19-19-19-19-19-19-| 
D|-17-17-17-17-17-17-17-17-17-17-| 
A|-------------------------------|
E|-------------------------------|


E|--------------------------------------------------------------| 
B|-----------15--------15-----------17^V-------------15-17p15---| 
G|-16---14h16-----14h16--16 14--16------14-16^V-14h16--------14-| 
D|----------------------------14--------------------------------| 
A|--------------------------------------------------------------|
E|--------------------------------------------------------------|

E|--------------------------------------------------------------| 
B|-----------15--------15-------------17--17--15h17--17---------| 
G|-16---14h16-----14h16--16 14--16------16--16-----16-----------| 
D|----------------------------14--------------------------------| 
A|--------------------------------------------------------------|
E|--------------------------------------------------------------|

E|---------------------------------------------------------------------| 
B|------------------------------------------------------------17-17----| 
G|-16---14h16p14h16h14h16-----------------------14h16p14h16---------16-| 
D|--------------------------12h14p12h14p12h14--------------------------| 
A|---------------------------------------------------------------------|
E|---------------------------------------------------------------------|

E|-----------------------------------------------| 
B|-----------------------------------------------| 
G|----4---------------------4------7--5--4-------| 
D|-4h5-------4h5-2-------4h5--------------4h5-2--| 
A|-----------------------------------------------|
E|-----------------------------------------------|

E|-------------------------------| 
B|-7-7-7-7-7-7-7-7-7-7-7-7-7-7-7-| x 8
G|-7-7-7-7-7-7-7-7-7-7-7-7-7-7-7-| 
D|-7-7-7-7-7-7-7-7-7-7-7-7-7-7-7-| 
A|-5-5-5-5-5-5-5-5-5-5-5-5-5-5-5-|
E|-------------------------------|

E|-------------------------------|       ---
B|-15-15-15-15-15-15-15-15-15-15-| x 3    |
G|-14-14-14-14-14-14-14-14-14-14-|        |
D|-12-12-12-12-12-12-12-12-12-12-|        | 
A|-------------------------------|        |
E|-------------------------------|        |
                                         x 2
E|-------------------------------|        |
B|-20-20-20-20-20-20-20-20-20-20-|        | 
G|-19-19-19-19-19-19-19-19-19-19-|        | 
D|-17-17-17-17-17-17-17-17-17-17-|        | 
A|-------------------------------|        |
E|-------------------------------|       ---

E|--------------------------------------------------------------| 
B|-----------15--------15-----------17^V-------------15-17p15---| 
G|-16---14h16-----14h16--16 14--16------14-16^V-14h16--------14-| 
D|----------------------------14--------------------------------| 
A|--------------------------------------------------------------|
E|--------------------------------------------------------------|

E|--------------------------------------------------------------| 
B|-----------15--------15-------------17--17--15h17--17---------| 
G|-16---14h16-----14h16--16 14--16------16--16-----16-----------| 
D|----------------------------14--------------------------------| 
A|--------------------------------------------------------------|
E|--------------------------------------------------------------|


E|----------------------------------------------------------------------| 
B|------------------------17-----------------------------------17-17----| 
G|-16---14h16p14h16h14h16------------------------14h16p14h16---------16-| 
D|---------------------------12h14p12h14p12h14--------------------------| 
A|----------------------------------------------------------------------|
E|----------------------------------------------------------------------|

E|-----------------------------------------------| 
B|-----------------------------------------------| 
G|----4---------------------4------7--5--4-------| 
D|-4h5-------4h5-2-------4h5--------------4h5-2--| 
A|-----------------------------------------------|
E|-----------------------------------------------|

E|-------------------------------| 
B|-7-7-7-7-7-7-7-7-7-7-7-7-7-7-7-| x 8
G|-7-7-7-7-7-7-7-7-7-7-7-7-7-7-7-| 
D|-7-7-7-7-7-7-7-7-7-7-7-7-7-7-7-| 
A|-5-5-5-5-5-5-5-5-5-5-5-5-5-5-5-|
E|-------------------------------|

E|-------------------------------|       ---
B|-15-15-15-15-15-15-15-15-15-15-| x 3    |
G|-14-14-14-14-14-14-14-14-14-14-|        |
D|-12-12-12-12-12-12-12-12-12-12-|        | 
A|-------------------------------|        |
E|-------------------------------|        |
                                         x 2
E|-------------------------------|        |
B|-20-20-20-20-20-20-20-20-20-20-|        | 
G|-19-19-19-19-19-19-19-19-19-19-|        | 
D|-17-17-17-17-17-17-17-17-17-17-|        | 
A|-------------------------------|        |
E|-------------------------------|       ---

E|----------------| 
B|----------------| x 2
G|-4--------------| 
D|-4----7----5----| 
A|-2----7----5----|
E|------5----3----|

E|-------------------------------| 
B|-------------------------------| x 6
G|-------------------------------| 
D|-------------------------------| 
A|-------------------------------|
E|-------------------------------|

E|-------------------------------|  ---
B|-19-19-19-19-19-19-19-19-19-19-|   |
G|-19-19-19-19-19-19-19-19-19-19-|   | 
D|-16-16-16-16-16-16-16-16-16-16-|   | 
A|-------------------------------|   |
E|-------------------------------|   |
                                   x 8
E|-------------------------------|   | 
B|-20-20-20-20-20-20-20-20-20-20-|   |
G|-19-19-19-19-19-19-19-19-19-19-|   | 
D|-17-17-17-17-17-17-17-17-17-17-|   | 
A|-------------------------------|   |
E|-------------------------------|  ---

E|-------|  
B|-19----|   
G|-19----|    
D|-16----|   
A|-------|   
E|-------|   



 II - Rythm guitar - Guitarra ritmica

E|-------------------------------| 
B|-7-7-7-7-7-7-7-7-7-7-7-7-7-7-7-| x 8
G|-7-7-7-7-7-7-7-7-7-7-7-7-7-7-7-| 
D|-7-7-7-7-7-7-7-7-7-7-7-7-7-7-7-| 
A|-5-5-5-5-5-5-5-5-5-5-5-5-5-5-5-|
E|-------------------------------|

E|----------------------------------------| 
B|----------------------------------------| x 8
G|-5--5-55-555-5-55-7-7-------------------| 
D|-5--5-55-555-5-55-7-7-7-77-777-7-77-777-| 
A|-3--3-33-333-3-33-5-5-7-77-777-7-77-777-|
E|----------------------5-55-555-5-55-555-|

E|-------------------------------| 
B|-7-7-7-7-7-7-7-7-7-7-7-7-7-7-7-| x 4
G|-7-7-7-7-7-7-7-7-7-7-7-7-7-7-7-| 
D|-7-7-7-7-7-7-7-7-7-7-7-7-7-7-7-| 
A|-5-5-5-5-5-5-5-5-5-5-5-5-5-5-5-|
E|-------------------------------|

E|-----------------------------| 
B|-------------10--------------| x 4  
G|-9-11-9-9-11----9-11-9-11----| 
D|--------------------------12-| 
A|-----------------------------|
E|-----------------------------|

E|----------------------------------------| 
B|----------------------------------------| x 8
G|-5--5-55-555-5-55-7-7-------------------| 
D|-5--5-55-555-5-55-7-7-7-77-777-7-77-777-| 
A|-3--3-33-333-3-33-5-5-7-77-777-7-77-777-|
E|----------------------5-55-555-5-55-555-|

E|-------------------------------| 
B|-7-7-7-7-7-7-7-7-7-7-7-7-7-7-7-| x 4
G|-7-7-7-7-7-7-7-7-7-7-7-7-7-7-7-| 
D|-7-7-7-7-7-7-7-7-7-7-7-7-7-7-7-| 
A|-5-5-5-5-5-5-5-5-5-5-5-5-5-5-5-|
E|-------------------------------|

E|-----------------------------| 
B|-------------10--------------| x 4
G|-9-11-9-9-11----9-11-9-11----| 
D|--------------------------12-| 
A|-----------------------------|
E|-----------------------------|

E|----------------| 
B|----------------| x 2
G|-4----6----7----| 
D|-4----6----7----| 
A|-2----4----5----|
E|----------------|

E|-----------------------------------------------| 
B|-----------------------------------------------| x 2
G|-7-7-7-7-7-7-7-7-9-9-9-9-9-9-9-4-4-4-4-4-4-4-4-|
D|-7-7-7-7-7-7-7-7-9-9-9-9-9-9-9-4-4-4-4-4-4-4-4-| 
A|-5-5-5-5-5-5-5-5-7-7-7-7-7-7-7-2-2-2-2-2-2-2-2-|
E|-----------------------------------------------|

E|-------------------------------| 
B|-7-7-7-7-7-7-7-7-7-7-7-7-7-7-7-| x 8
G|-7-7-7-7-7-7-7-7-7-7-7-7-7-7-7-| 
D|-7-7-7-7-7-7-7-7-7-7-7-7-7-7-7-| 
A|-5-5-5-5-5-5-5-5-5-5-5-5-5-5-5-|
E|-------------------------------|

E|-------------------------------| 
B|-10-7-10-7-10-7-10-7-10-7------| x 4
G|--7-7--7-7--7-7--7-7--7-9------| 
D|--7-7--7-7--7-7--7-7--7-7------| 
A|-------------------------------|
E|-------------------------------|

E|------| 
B|------| 
G|-4----| 
D|-4----| 
A|-2----|
E|------|

Tap to rate this tab
# A B C D E F G H I J K L M N O P Q R S T U V W X Y Z