Song name
# A B C D E F G H I J K L M N O P Q R S T U V W X Y Z

South - What I Find tab

Guitar Tabs by: South
Tabs for song: What I Find
Album: With the Tides
Tabbed by: Lethal
Email: skullcalavera@hotmail.com

Send me an email for any correction. / mandenme un mail si ahy alguna correccion.
Enjoy it ! Yeah! 

Tuning: Standard

 Intro / Introduccion

E|-4---7---4-----7-4---7---4-----7-| 
B|-7---5---x---3-7-7---5---x---3-7-| x 2
G|-6---4---6---4-4-6---4---6---4-4-| 
D|-4---6---7---4-4-4---6---7---4-4-| 
A|---------5---2---4---4---5---2---|
E|-----------------4---4-------2---|

E|-4---------5-7-6---------------2----7-----| 
B|-7----7----5---5--5--9----7------3--------| x 2
G|-6-7--6-6--------6-6-6-7--6-7--4--2-9-9-6-| 
D|-4--7-4--7-7---------7--7----7-4----9-----| 
A|------------------------------------------|
E|------------------------------------------|

 VERSE I / Primer verso

E|-----4-----7------------7--| 
B|---------------------------| 
G|-6-6----------6-6-7--4--9--| 
D|-4--7---6-----7----6-4--9--| 
A|-4------4-----5------2--7--|
E|--------4------------------|

E|-----4---7---------------2----7--| 
B|-------------------------2-3--7--| 
G|-6-6--6--------6-7-6-6------2----| 
D|-4--7--7-6-----7--7---7--4----9--| 
A|-4-------4-----5-----------------|
E|---------4-----------------------|

E|-----4-----7------------7--| 
B|---------------------------| 
G|-6-6----------6-6-7--4--9--| 
D|-4--7---6-----7----6-4--9--| 
A|-4------4-----5------2--7--|
E|--------4------------------|

E|-----4--7--7----------------2----7--| 
B|------------3h4h5-------9---2-3--7--| 
G|-6-6---------------6-7-6-6-----2----| 
D|-4--7---6----------7--7---7-4----9--| 
A|-4------4----------5----------------|
E|--------4---------------------------|

 Interlude / Interludio

E|-4---------5-7-6---------------2----7-----| 
B|-7----7----5---5--5--9----7------3--------| x 6
G|-6-7--6-6--------6-6-6-7--6-7--4--2-9-9-6-| 
D|-4--7-4--7-7---------7--7----7-4----9-----| 
A|------------------------------------------|
E|------------------------------------------|


 Extra Guitar / Guitarra Adicional

E|------------------------------| 
B|------------------------------| 
G|-14-14-13-13-11-11-9-9-9-9h11-| 
D|------------------------------| 
A|------------------------------|
E|------------------------------|

E|-------------------------| 
B|-------------------------| 
G|-11-11-9-9-7-7-6-6-4-4h6-| 
D|-------------------------| 
A|-------------------------|
E|-------------------------|

E|------------------------------| 
B|------------------------------| 
G|-14-14-13-13-11-11-9-9-9-9h11-| 
D|------------------------------| 
A|------------------------------|
E|------------------------------|

 VERSE II / Segundo Verso

E|-----4----7-------------7--| 
B|---------------------------| 
G|-6-6----------6-6-7--4--9--| 
D|-4--7---6-----7----6-4--9--| 
A|-4------4-----5------2--7--|
E|--------4------------------|

E|-----4---7---------------2----7--| 
B|-------------------------2-3--7--| 
G|-6-6--6--------6-7-6-6------2----| 
D|-4--7--7-6-----7--7---7--4----9--| 
A|-4-------4-----5-----------------|
E|---------4-----------------------|

E|-----4-----4------------------2--7--| 
B|-------------3h4h5-------9----2--7--| 
G|-6-6--6-------------6-7-6-6---------| 
D|-4--7--7-6----------7--7---7--4--9--| 
A|-4-------4----------5---------------|
E|---------4--------------------------|

E|-----4--7--7----------------2----7--| 
B|-------------3h4h5------9---2-3--7--| 
G|-6-6---------------6-7-6-6-----2----| 
D|-4--7---6----------7--7---7-4----9--| 
A|-4------4----------5----------------|
E|--------4---------------------------|

 ENDING / Final

E|-4------4-7-44-44---------7--| 
B|-7----7-5-5-55-55-7-77--3-7--| x 5
G|-6-66-6-4-4-44-66-6-66--4-4--| 
D|-4-44-4-6-6-66-77-4-44--4-4--| 
A|-4-44-4-4-4-44----4-44--2----|
E|-4-44-4----------------------|


E|-4---7---4-----7-4---7---4-----7--4--| 
B|-7---5---x---3-7-7---5---x---3-7--7--| x 2
G|-6---4---6---4-4-6---4---6---4-4--6--| 
D|-4---6---7---4-4-4---6---7---4-4--4--| 
A|---------5---2---4---4---5---2-------|
E|-----------------4---4---------------|

 Extra Guitar / Guitarra Adicional

E|------------------------------| 
B|------------------------------| 
G|-14-14-13-13-11-11-9-9-9-9h11-| 
D|------------------------------| 
A|------------------------------|
E|------------------------------|

E|-------------------------| 
B|-------------------------| 
G|-11-11-9-9-7-7-6-6-4-4h6-| 
D|-------------------------| 
A|-------------------------|
E|-------------------------|

E|------------------------------| 
B|------------------------------| x 2
G|-14-14-13-13-11-11-9-9-9-9h11-| 
D|------------------------------| 
A|------------------------------|
E|------------------------------|

E|------------------------------| 
B|------------------------------| 
G|-14-14-13-13-11-11-9-9-9-9h11-| 
D|------------------------------| 
A|------------------------------|
E|------------------------------|

E|-------------------------| 
B|-------------------------| 
G|-11-11-9-9-7-7-6-6-4-4h6-| 
D|-------------------------| 
A|-------------------------|
E|-------------------------|

Tap to rate this tab
 
# A B C D E F G H I J K L M N O P Q R S T U V W X Y Z