Song name
# A B C D E F G H I J K L M N O P Q R S T U V W X Y Z

South - Motiveless Crime tab

-------------------------------------------------------------------------------
			Motiveless Crime - South
-------------------------------------------------------------------------------
Tabbed by: Lethal
Email: skullcalavera@hotmail.com

Album: With the Tides

Send me an email for any correction. / mandenme un mail si ahy alguna correccion.
Enjoy it ! 

  Tuning: Standard

  Intro - Introduccion

e|---5-----5-----5-------5-5----5-----5-----5-------5-5-|
B|-7-7---7-7---7-7---7-7-7-7--7-7---7-7---7-7---7-7-7-7-|
G|-6-6---6-6---6-6---6-6-6-6--6-6---6-6---6-6---6-6-6-6-|
D|-4-4---4-4---4-4---4-4-4-4--4-4---4-4---4-4---4-4-4-4-|
A|------------------------------------------------------|
E|------------------------------------------------------|

e|---------------------------------|
B|-7-7-7-7-7-7-7-7-7-7-7-7-5-5-5-5-| x 4
G|-6-6-6-6-6-6-6-6-6-6-6-6-4-4-4-4-|
D|-4-4-4-4-4-4-4-4-4-4-4-4-2-2-2-2-|
A|-------------------------2-2-2-2-|
E|-------------------------0-0-0-0-|

e|--------------------------------------------77------|
B|--------------------------------77-7-7-7--55--5---5-|
G|-6-66-6-66-6--6-66-6-66-6--6-66-----------------66--|
D|----------------------------------------------------|
A|----------------------------------------------------|
E|----------------------------------------------------|

e|----------------------------------------------------|
B|-5---5---5-7--77--7-5---5---5-7-5-7--5--5--5--5--5--|
G|---66--66-------------66--66------------------------|
D|------------4----4----------------------------------|
A|----------------------------------------------------|
E|----------------------------------------------------|

   Verse I - Primer Verso

e|-4--4---4--4---5--5---2--2-|
B|-7--7---7--7---7--7---5--5-| x 2
G|-6--6---6--6---6--6---4--4-|
D|-4--4---4--4---7--7---2--2-|
A|-4--4---4--4---5--5---2--2-|
E|----------------------0--0-|

   Chorus - Coro

e|-4--4---4--4---7--7---2--2-|
B|-7--7---7--7--10-10---5--5-| x 3
G|-6--6---6--6---9--9---4--4-|
D|-4--4---4--4---7--7---2--2-|
A|-4--4---4--4---7--7---2--2-|
E|----------------------0--0-|

e|-4--4---4--4---0--0---2--2-|
B|-7--7---7--7---0--0---5--5-| 
G|-6--6---6--6---2--2---4--4-|
D|-4--4---4--4---2--2---2--2-|
A|-4--4---4--4---0--0---2--2-|
E|----------------------0--0-|

e|----------------------------------|
B|----------------------------------|
G|----------------------------------|
D|-11--------------11---------------|
A|--9-12------------9-12------------|
E|--9---------------9---------------|

   Verse II - Segundo Verso

e|-4--4---4--4---5--5---2--2-|
B|-7--7---7--7---7--7---5--5-| x 2
G|-6--6---6--6---6--6---4--4-|
D|-4--4---4--4---7--7---2--2-|
A|-4--4---4--4---5--5---2--2-|
E|----------------------0--0-|

   Chorus - Coro

e|-4--4---4--4---7--7---2--2-|
B|-7--7---7--7--10-10---5--5-| x 3
G|-6--6---6--6---9--9---4--4-|
D|-4--4---4--4---7--7---2--2-|
A|-4--4---4--4---7--7---2--2-|
E|----------------------0--0-|

e|-4--4---4--4---0--0---2--2-|
B|-7--7---7--7---0--0---5--5-| 
G|-6--6---6--6---2--2---4--4-|
D|-4--4---4--4---2--2---2--2-|
A|-4--4---4--4---0--0---2--2-|
E|----------------------0--0-|

   Interlude - Interludio

e|-------------------------------------------------|
B|--------------------------77-7--7--7--55-5--5--5-| x 2
G|--66-6--6--6--66--6--6--6------------------------|
D|-4-----------------------------------------------|
A|-------------------------------------------------|
E|-------------------------------------------------|

e|------------|
B|------------|
G|-6----------|
D|---7-7h9--4-|
A|------------|
E|------------|

   Ending - Final

e|-4--4---4--4---5--5---2--2-|
B|-7--7---7--7---7--7---5--5-| x 2
G|-6--6---6--6---6--6---4--4-|
D|-4--4---4--4---7--7---2--2-|
A|-4--4---4--4---5--5---2--2-|
E|----------------------0--0-|

e|---------------------------5---------------|
B|-5---5---5--5---5---5--7-5---5-7-5---5---5-|
G|---66--66-----66--66---------------66--6---|
D|-------------------------------------------|
A|-------------------------------------------|
E|-------------------------------------------|

e|---------------------------5------------------------|
B|-5---5---5--5---5---5--7-5---5-7-5---5---5--5--5--5-|
G|---66--66-----66--66---------------66--6------------|
D|----------------------------------------------------|
A|----------------------------------------------------|
E|----------------------------------------------------|

| /  slide up
| \  slide down
| h  hammer-on
| p  pull-off
| ~  vibrato
| +  harmonic
| x  Mute note
===============================================================================
Tap to rate this tab
 
# A B C D E F G H I J K L M N O P Q R S T U V W X Y Z