Song name
# A B C D E F G H I J K L M N O P Q R S T U V W X Y Z

Southborder - Love Of My Life chords

Highlighted       Show chord diagrams
Song Title: Love of My Life
Band Name: Southborder
Chords by: Keno Ventolero

Notes: CAPO ON THE FIRST FRET -- Very important

Guide to some of the chords used:
    E  F#m7  G#m7  B   B/A   A   C#m7
e|--0----0----0----0----0----0----0---|
B|--0----0----0----0----0----0----0---|
G|--1----2----4----4----4----2----4---|
D|--2----2----4----4----4----2----2---|
A|--2----x----x----2----0----0----4---|
E|--0----2----4-----------------------|

Intro: E - G#m7 - F#m7 - B
       E - G#m7 - F#m7 - F

Verse:
E              G#m7                F#m7
Oh, love of my life, destined forever
          F
I will be right here by your side
E          G#m7                 F#m7
No falling tears when we're together
             F
You know the joy you bring to me

Refrain:
G#m7                  C#m
Never, there'll be no other
               CM7
We'll share as lovers
               B
Right from the heart at
                     B/A
From my mind to your soul
             G#m7       C#m7
I will give it to you girl
         
My every little thing
         CM7
That I'm more than willing
B      B/A       -- G#m
I will give to you


Chorus:
   C#m7            
Forever starts from now
          F#m7
I promise you
B             B/A            G#m7
Loving you is all that I can do
   C#sus4-C#       F#m7      G#m7
No one can take it away from me
    A-B
Nobody but you

Interlude: E - G#m7 - F#m7 - F


Verse: [Same chords as first verse]

Oh, now is the time stars will be bright
Our bodies will groove all through the night
Come take my hand then we will fly high
Come on baby here me say

[Repeat Refrain]

[Repeat Chorus]

A              G#m7              F#m7
There'll be no time for said good byes
            G#sus4 - G#
Without you here
                 C#m7
I'll killed good bye
CM7       B
Don't you go away

Adlib: 

E - G#m7 - F#m7 - F

e|-----------------------|
B|------------------7~~--|
G|------1--2-1--2/9------|
D|--1/2------------------|
A|-----------------------|
E|-----------------------|

e|----------------|
B|--5h7-5---------|
G|--------4-2/9~--|
D|----------------|
A|----------------|
E|----------------|

e|------4--5-4--4/--14~--|
B|--4/5------------------|
G|-----------------------|
D|-----------------------|
A|-----------------------|
E|-----------------------|

e|-------------------------|
B|--10h12-10-9-------------|
G|-------------(13)r11-9~--|
D|-------------------------|
A|-------------------------|
E|-------------------------|

e|----------4----------|
B|------5/7---5-5/7~---|
G|---------------------|
D|--4/6----------------|
A|---------------------|
E|---------------------|


[Repeat Refrain]

[Repeat Chorus 'til end]

2012 - Keno Ventolero
Tap to rate this tab
# A B C D E F G H I J K L M N O P Q R S T U V W X Y Z