Southern Sons - You Were There tab

Intro:

E:-----------------------------------------------------|
B:--1--------1-----------------------------------------|
G:--------0--------------5--5--------5-5/7---------7---|
D:-----2--------3--2--3--------3--3---------5--5-------|
A:--3-----------5--------------------------------------|
E:--------------------------5----------5/7-------------|


E:-------------------------------------------------1|
B:---------------8-------------------5-------------1|
G:------------7-----7----------------5---------4----|
D:--------10-----------10---------3-----------------|
A:-----7--------------------------------------------|
E:--8--------------------------5---------5--3-------|


Verse:
E:------------0---------------------1---------------0---|
B:--------8---------6--5------------1-----------8-------|
G:--------7------------5--------4---------------7-------|
D:------------------3-----------------------------------|
A:-----7-------------------------------------7----------|
E:--8------------5--------5--3---------3--8-------------|

E:-----0----0----------------------1-------------------|
B:--8----8-----------5-------------1------------8------|
G:--7----7-----------5---------4----------------7------|
D:----------------3------------------------------------|
A:-------------------------------------------7---------|
E:--8----------5---------5--3---------3--8---------8---|


Refrain:

E:---------------3------------------------|
B:-----1---------------------1-----0------|
G:--------0--2---------------0-----0------|
D:---------------------------------0------|
A:----------------------------------------|
E:--1------------1------3-----------------|

E:-------------------3-------------------3----3--------|
B:---------------3--------------------3-------3--------|
G:---------0h2--------------------------------4--------|
D:-----------------------------------------------------|
A:-----------------------------------------------------|
E:--3--1---------1---1--------1---3--------------------|


(Repeat Intro Chords for Chorus)

E:------------------------------------------------------|
B:------------------------------------------------------|
G:--5---------5--------5------7---------7--------7------|
D:------3-5---------3-------------5-7---------5---------|
A:--5------------5------------7------------7------------|
E:------------------------------------------------------|
    long      and empty sleep             I   was a lone

E------------------------------------3-----3---------------|
B:--3---------3--------3---------3---------3---------------|
G:------0-2---------2----------------------4---------------|
D:---------------------------------------------------------|
A:---------------------------------------------------------|
E:--1-------------------------3----------------------------|
                          I  opened   my   eyes   and you were


E:-----------------------------------------------------|
B----------------8-------------------------------------|
G-------------7-----7----------------5-----4-----------|
D:--------10-----------10---------3---------5----------|
A:-----7-----------------------------------------------|
E:--8--------------------------5------------3----------|
   there.


Bridge:

E:------------------------------------------------------|
B:--1---------------------------3-----------------------|
G:--2--0--2--------2------------0------------2--4-4-----|
D:-----------------3------------------------------------|
A:------------------------------------------------------|
E:--1--------1--1------------1--3---------3--3----------|


E:--------------1-----0------------------------------------|
B:--------1-----3-----1------------------1--1-----------3--|
G:--------0-----------------2-----------------2---------0--|
D:-----2--------------------3------------------------------|
A:--3------------------------------------------------------|
E:---------------------------1--------1--1-----------1--3--|


E:--------------------------------------------------|
B:--------------------------------------------------|
G:--8-----------8--------8-8-----8------------------|
D:-------5-6--------6-------------------------------|
A:--8-----------------------------------------------|
E:--------------------------------------------------|


E:----------------------------------------------------|
B:----------------------------------------------------|
G:--10----------10--------10-10----10-----------------|
D:-------7-8---------8--------------------------------|
A:--10------------------------------------------------|
E:----------------------------------------------------|


Outro:
E:----------------1-----1----------------------------|
B:--6------5------1------------------------8--8------|
G:--5------5------------4---------------7--------7---|
D:-----------------------------------10--------------|
A:--------------------------------7------------------|
E:--5----------5--3------------8---------------------|

E:------------[3]-------------------------------------|
B:-------[3]------------------------------------------|
G:--[5]-----------------------------------------------|
D:----------------------------------------------------|
A:----------------------------------------------------|
E:----------------------------------------------------|

h  =  hammer on
p  =  pull off
/  =  slide up
\  =  slide down
x  =  dead string
TAP=  tapping the string/strings
() =  natural harmonic
[] =  artificial harmonic
.  =  staccato effect
~~ =  vibratto effect
*  =  how it was played
^  =  strum
___=  Let ring (strike the 1st note and let it ring up to the 2nd note[without striking
2nd note]).

      Feel free to comment on my Facebook at reginaldstalucia@yahoo.com
      vote please.tnx!
Tap to rate this tab
 
# A B C D E F G H I J K L M N O P Q R S T U V W X Y Z