Song name
# A B C D E F G H I J K L M N O P Q R S T U V W X Y Z

Soziedad Alkoholika - Nos Vimos En Berlin tab

Help us improve GuitareTab! Take a short survey!
SOZIEDAD ALKOHOLIKA, Nos vimos en Berlin.
Tabbed by Juan gomez, gbome@mixmail.com.
  
Band: Soziedad Alkoholika
Album: Soziedad Alkoholika
Song: Nos vimos en Berlin                 

Verso (verse):

 e |----------------------------------|
 B |----------------------------------|
 G |---9---8-9---8-9---5*---8*-9------|
 D |---9---8-9---8-9---5*---8*-9------|
 A |---7---6-7---6-7---3*---6*-7------|
 E |----------------------------------|

 * :- 3 VECES CADA ACORDE (each chord 3 times)


Salida:

 e |--------------------|
 B |--------------------|
 G |---5*----8*---------|
 D |---5*----8*---3-----|
 A |---3*----6*---3-----|
 E |--------------1-----|

 * :- 3 VECES CADA ACORDE (each chord 3 times)


 e |---------------------------------|
 B |---------------------------------|
 G |----5*---------8\9\10--10--------|
 D |----5*---------8\9\10--10--------|
 A |----3*---------6\7\8---8---------|
 E |---------------------------------|

 * :- 5 VECES CADA ACORDE (each chord 5 times)



        

 
:: Ultimate Guitar Archive :: 
http://www.ultimate-guitar.com 

Related for Nos Vimos En Berlin tab