Song name
# A B C D E F G H I J K L M N O P Q R S T U V W X Y Z

Soziedad Alkoholika - En El Tejado tab

Help us improve GuitareTab! Take a short survey!
Escrita por SOTI (soti666@mixmail.com)

INTRO
1)
---------------------------------------------
---------------------------------------------
---------------------------------------------
--5-5--8-8-8--0-0-0-0-------5-5-5--8-8-8--0--
--5-5--8-8-8--0-0-0-0--3s5--5-5-5--8-8-8--0--
--5-5--8-8-8--0-0-0-0--3s5--5-5-5--8-8-8--0--
  PM.......................................
2)
-------------------------------------------------------
-------------------------------------------------------
-------------------------------------------------------
--5-5--8-8-8--0-0-0-0-------5--5-5-5--8-8-8--0--0-3-0--
--5-5--8-8-8--0-0-0-0--3s5--5--5-5-5--8-8-8--0--0-3-0--
--5-5--8-8-8--0-0-0-0--3s5--5--5-5-5--8-8-8--0--0-3-0--
                               PM...            PM...
VERSO
1) (Por un momento...)
                                            xxxxxxxxxxx
------------------------------------------------------
------------------------------------------------------
------------------------------------------------------
---------------------3h5--------------------7-7--(3)--
--5-5--8-8--0-0-0-0-------5-5-5-5--8-8-8-8--5-5-------
--5-5--8-8--0-0-0-0-------5-5-5-5--8-8-8-8------------
  PM...............       PM....................
xxxxxxxxxxxxx
---------------
---------------
-(3)-----(0)---
-----(3)-------
---------------
---------------

La segunda vez que toques el riff en vez de tocar lo
que pone en la zona marcada con 'x' toca esto:
---------------------
---------------------
---------------------
--7-7-----7-7-----7--
--5-5--0--5-5--0--5--
-------0-------0-----

2) (No ves...)
Tocar lo mismo que en Intro 2
PRE-CHORUS
1) (Ay, ay, ay,...)
                            xxxx
---------------------------------
---------------------------------
---------------------------------
--5-5-------9-9-9----------------
--3-3--5-5--7-7-7--6-6--5---3----
-------5-5---------6-6--5*--3*---
       PM.

La segunda vez que toques el riff en vez de tocar lo
que pone en la zona marcada con 'x' toca esto:

----
----
----
----
-6--
-6*-

2) (Nunca podris arrancarnos ...)
Tocar lo mismo que en Intro 2
CHORUS

1) (Imbeciles!)

------------------------------------------------------------
------------------------------------------------------------
------------------------------------------------------------
----------------------8--5-5--5---8---------8---------10----
--8--5-5-5--8--5-5-5--6--3-3--3*--6--8-8-8--6--8-8-8--8---10
--8--5-5-5--8--5-5-5-----------------8-8-8-----8-8-8------10
                              PM                            

---------
---------
---------
---------
-10--10--
-10--10*-
     PM
2) (Tu ests junto a m...)
                                        xxxxxxx
------------------------------------------------
------------------------------------------------
------------------------------------------------
------------------------5--5---5--------8--8----
--8--5-5--8--5-5---3-3--3--3*--3---3-3--6--6*---
--8--5-5--8--5-5---3-3-------------3-3----------
                           PM               PM

La segunda vez que toques el riff en vez de tocar lo
que pone en la zona marcada con 'x' toca esto:

---------
---------
---------
--8-7-5--
--6-5-3--
---------
ACORDES DURANTE EL SOLO

------------------------------------------------------------
------------------------------------------------------------
------------------------------------------------------------
------------------------------------------------------------
--5-------------5-8-------------8-0-------------0-0-3--5----
--5--5-5-5-5-5--5-8--8-8-8-8-8--8-0--0-0-0-0-0--0-0-3--5--5-
     PM.......       PM.......       PM.......            PM

------------------------------------------
------------------------------------------
------------------------------------------
----------------------------7--7---8-7-5--
----------5-8-------------8-5--5*--6-5-3--
-5-5-5-5--5-8--8-8-8-8-8--8---------------
 .......       PM.......       PM

------------------------------------------------------------
------------------------------------------------------------


En el tejao

Por un momento casi lo he olvidado
el aire limpio, entra dentro de m.
Medevuelve la vida,poco a poco me da calor
me siento medio humano, me siento mejor.

No vis? Estoy ak! Subido en lo ms alto 
hoy yo s que soy feliz. No vis?
No queris ver?
Mirarnos a los ojos y no nos olvidis.

Esas malditas rejas no las veo
delante de mis ojos no las veo
tengo enfrente solamente el horizonte
y creo, casi creo, ke puedo volar
no vis? estoy ak! Subido en lo ms alto 
hoy yo s que soy feliz.No vis?
No queris ver!

Nunca podris arrancarnos el corazn
no impediris que salga al exterior
toda nuestra fuerza nunca lo impediris!

Todas esas malditas rejas no las veo
delante de mis ojos hoy yo no las veo
nos da valor estar todos juntos ak
me da valor pensar que t estas junto a m.

Han intentado mil maneras para anular
nuestros sueos de libertad
y slo han conseguido que nos unamos ms
y slo han conseguido que nos unamos ms
Hemos sufrido ya demasiao
por eso hemos subido al tejao
hemos sufrido ya demasiao
nadie podr ignorarnos no podrn!

Encerrados en un sucio matadero humano
nuestros cerebros necesitaban aire sano
nos han cagao, nos han meao, nos han pateao
nos han cagao, nos han meao,nos han torturao
hemos sufrido ya demasiao
por eso hemos subido al tejao
todos nos han visto y

ESKUCHARLA Y VEREIS.SI TENEIS ALGN  PROBLEMA ,YA SABEIS (soti666@mixmail.com).HASTA OTRA
Related for En El Tejado tab