Song name
# A B C D E F G H I J K L M N O P Q R S T U V W X Y Z

Space Cow - Paranoia tab

Help us improve GuitareTab! Take a short survey!
Tuning from low to high: B F# B E G# C#

Riff A
|----------------------------------------------------------|
|----------------------------------------------------------|
|----------------------------------------------------------|
|-181818181818181817171717171717171515151515151515---------|
|-171717171717171716161616161616161414141414141414---------|
|-15151515151515151414141414141414121212121212121288888888-
                                                  ........

Riff B Verse
|-----------------------------------------------------------------------------|
|-----------------------------------------------------------------------------|
|-----------------------------------------------------------------------------|
|-18-18-18-18---------17-17-17-17---------15-15-15-15-------------------------|
|-17-17-17-17---------16-16-16-16---------14-14-14-14-------------------------|
|-15-15-15-15-2-2-2-2-14-14-14-14-2-2-2-2-12-12-12-12-2-2-2-2-8-8-8-8-8-8-8-8-|
              . . . .             . . . .             . . . . . . . . . . . .

Riff C
|-------------------------------------|
|-------------------------------------|
|-------------------------------------|
|-------------------------------------|
|-------------------------------------|
|-15-0-15-0-14-0-12-0-5-0-5-0-4-0-2-0-|

That's all i've got for now when i'm done with the rest of the song i'll post it, if you 
any comments on it or any corrections or know the tabs for the missing parts let me know
Related for Paranoia tab