Song name
# A B C D E F G H I J K L M N O P Q R S T U V W X Y Z

Space Cow - Paranoia tab

t. See http://www.olga.net/faq/ for more information.                     #
#-----------------------------------------------------------------------------#

From: "Renan" 
Subject: s/space_cow/paranoia.tab
Date: Thu, 2 Mar 2000 10:48:40 -0300

SPACE COW
Song: Paran=F3ia
Transcribed by: Renan M. Tonheiro (renan.sonic@sti.com.br)
This is my favorite band. SPACE COW is the best Brazilian band. Here's =
the tab:

Intro1:

e|----------------------------|-----------------------------|
B|----------------------------|-----------------------------|
G|o------------7--9------7--9-|-------------7--9------7--9-o|
D|o-9-9-9-7--9------7--9------|--9-9-9-7--9------7--9------o|
A|--7-7-7---------------------|--7-7-7----------------------|
E|----------------------------|-----------------------------|

Intro2:

e|----------------------------|-----------------------------|
B|----------------------------|-----------------------------|
G|o---------------4-4-4444----|----------------------------o|
D|o---2-2-222-----4-4-4444----|-----6-6-666------7-7-7777--o|
A|----2-2-222-----2-2-2222----|-----6-6-666------7-7-7777---|
E|----0-0-000-----------------|-----4-4-444------5-5-5555---|


Verse1:

e|----------------------------|-----------------------------|
B|----------------------------|-----------------------------|
G|o---------------4-4-4444----|----------------------------o|
D|o---2-2-222-----4-4-4444----|-----6-6-666------7-7-7777--o|
A|----2-2-222-----2-2-2222----|-----6-6-666------7-7-7777---|
E|----0-0-000-----------------|-----4-4-444------5-5-5555---|
     |___________________________________________________|
                            P. M.
Verse2:

e|----------------------------|-----------------------------|
B|----------------------------|-----------------------------|
G|o---------------4-4-4444----|----------------------------o|
D|o---2-2-222-----4-4-4444----|-----6-6-666------7-7-7777--o|
A|----2-2-222-----2-2-2222----|-----6-6-666------7-7-7777---|
E|----0-0-000-----------------|-----4-4-444------5-5-5555---|

Bridge: 
Repeat 2X
e|----------------------------|-----------------------------|
B|----------------------------|-----------------------------|
G|o---4--4--4--X-X---7--7--7--|----4--4--4--X-X---7--7--7--o|
D|o---4--4--4--X-X---7--7--7--|----4--4--4--X-X---7--7--7--o|   
A|----2--2--2--X-X---5--5--5--|----2--2--2--X-X---5--5--5---|
E|----------------------------|-----------------------------|

Chorus:

e|----------------------------|-----------------------------|
B|----------------------------|-----------------------------|
G|---9-9-9-99999--7-7-7-77777-|---9-9-9-99999--7-7-7-77777--|
D|---9-9-9-99999--7-7-7-77777-|---9-9-9-99999--7-7-7-77777--|   
A|---7-7-7-77777--5-5-5-55555-|---7-7-7-77777--5-5-5-55555--|
E|----------------------------|-----------------------------|

e|----------------------------|-----------------------------|
B|----------------------------|-----------------------------|
G|---9-9-9-99999--7-7-7-77777-|---5-5-5-55555--5-5-5-55555--|
D|---9-9-9-99999--7-7-7-77777-|---5-5-5-55555--5-5-5-55555--|   
A|---7-7-7-77777--5-5-5-55555-|---3-3-3-33333--3-3-3-33333--|
E|----------------------------|-----------------------------|

Solo: ???

The song:

>Intro1

>Intro2

>Verse1

>Verse2

>Bridge

>Chorus

>Solo + Intro2

>Verse2

>Bridge

>Chorus

>Intro2

Questions??? renan.sonic@sti.com.br
Tap to rate this tab
 
# A B C D E F G H I J K L M N O P Q R S T U V W X Y Z