Song name
# A B C D E F G H I J K L M N O P Q R S T U V W X Y Z

Space Monkeys - We Are The Supercool tab

We Are The Supercool


Intro:
e-----------------------------|
B-----------------------7-----|
G------7-9-7--------7-9---9-7-|
D--7-9-------7--7-9-----------|
A-----------------------------|
E-----------------------------| (x2)


e---7-5----------7-5---------------------------|
B-------7-5---5------7-5-----------------------|
G-----------7------------7------7-9--7----9-7~-|
D---------------------------7-9--------7-------|
A----------------------------------------------|
E----------------------------------------------|

D G all the way through:


D             G           D
She said that I dont understand,
             G            D
She says its easier for a man,
             G                D    G
But she dont know whats going down,

   D                        G
Im stuck in the sunshine no cloud on my heart,
A looking glass soul and a head full of dizzy stars,
A feeling of wonder that shoots through my blood like a stream,
And this is what it says to me,

D               G               D                       G
We are, we are, we are, we are, we are, we are, we are, we are the supercool,
We are, we are, we are, we are we arrre, we are the supercool,


Love grows inside you like a seed,
Upon your heart it starts to feed,
Until it blooms with chutes of gold,


Im stuck in the sunshine no cloud on my heart,
A looking glass soul and a head full of dizzy stars,
A feeling of wonder that shoots through my blood like a stream,


We are, we are, we are, we are, we are, we are, we are, we are the supercool,
We are, we are, we are, we are we arrre, we are the supercool,

(Harmonica Solo)


Guitar Solo:
e-------------------------------------------------------|
B--------7-------------------------7-----------7-8-7----|
G----7-9---7-----7-9-9b11-7~---7-9---7-----7-9-------7~-|
D--7---------7-9-------------7---------7-9--------------|
A-------------------------------------------------------|
E-------------------------------------------------------|


e-----------------------------------------------------------|
B--7-8-10-8-7---7-8-10-8-7-- 7-8-10-8-7-8-10-8-7-8-10-8-7---|
G-------------7------------7------------------------------7-|
D-----------------------------------------------------------|
A-----------------------------------------------------------|
E-----------------------------------------------------------|

e--15-14--------15-14----15-14----|
B--------15-----------15-------15-|
G-----------14~-------------------|
D---------------------------------|
A---------------------------------|
E---------------------------------| (x2)


e-------14--17 17-15-14-------------14-17-17-15-14-15-17-15-14------|
B-----15-----------------15-------15---------------------------15---|
G--14--------------------------14-----------------------------------|
D-------------------------------------------------------------------|
A-------------------------------------------------------------------|
E-------------------------------------------------------------------| (x2)


End Part:

            D    G   D   G...
e--------14-----|
B-----15----15~-|
G--14-----------|
D---------------|
A---------------|
E---------------|
Tap to rate this tab
# A B C D E F G H I J K L M N O P Q R S T U V W X Y Z