Song name
# A B C D E F G H I J K L M N O P Q R S T U V W X Y Z

Space Twins - Yellow Comaro tab

IMPORTANT: This is a new band that Has Weezer's Brian Bell in it.
If you need to find more about this band go to www.spacetwins.com.
----------------------------------------------------------------------------
AUTHORS NOTE:
This Song Is Yellow Comaro By The Space Twins. Go to www.spacetwins.com to
find out more about them any remember to buy their album "end Of Imagining"
---------------------------------------------------------------------------
Tab was Created On 9/15/03 By Joseph Jacklin
----------------------------------------------------------------------------

intro/verse       
    |--------------------------------------------------------|
    |-4-4-4-4-4-4-4-4-4-4-4-4-4---4-4------------------------|
    |-6-6-6-6-6-6-6-6-6-6-6-6-6---6-6------------------------|
    |-6-6-6-6-6-6-6-6-6-6-6-6-6---6-6------------------------|
    |--------------------------------------------------------|
    |--------------------------------------------------------|
P.M  |_________________________|  
          throughout              

Chrous

   |-----------2-2-2---------------------------------|
   |--4-4-4----4-4-4---2-2-2---2-2-2-----------------|
   |--6-6-6----4-4-4---2-2-2---4-4-4-----------------|
   |--6-6-6--------------------4-4-4-----------------|
   |-------------------------------------------------|
   |-------------------------------------------------|
        YELLOW COMARO!!!!!!!!!
Tap to rate this tab
# A B C D E F G H I J K L M N O P Q R S T U V W X Y Z