Song name
# A B C D E F G H I J K L M N O P Q R S T U V W X Y Z

Spacehog - Never Coming Down tab

this song is pretty cool, its a little different from pt.1, but the same idea


intro:
e----------------------------------------------------|
B----------------------------------------------------|
G-5--3--8--10-----------------------------------6--7-|
D-5--3--8--10--7--------7--------7--------7--9--6--7-|
A-3--1--6--8---7--------7--------7--------7--9--4--5-|
E--------------5--------5--------5--------5--7-------|


chorus:oh-oh-ooo-oh-oh
e-----------------------------------------------------------|
B-----------------------------------------------------------|
G-----------12-12------------10-10---------8-8----------7-7-|
D-12--12--x-12-12--10--10--x-10-10-8--8--x-8-8--7--7--x-7-7-|
A-12--12--x-10-10--10--10--x-8--8--8--8--x-6-6--7--7--x-5-5-|
E-10--10--x--------8---8---x-------6--6--x------5--5--x-----|


verse 1:
no guitar


ill have the second verse and the bridge soon!!!


if you have questions, need the lyrics, or are madly in love with me, email me at fuser158@sbcglobal.net


stay cool and be sure to rate this and my other tabs!!!


ug just might be the best thing since reusable condoms
Tap to rate this tab
# A B C D E F G H I J K L M N O P Q R S T U V W X Y Z