Song name
# A B C D E F G H I J K L M N O P Q R S T U V W X Y Z

Spacehog - In The Meantime tab

-------------------------------------------------------------------------------
			     In The Meantime - Spacehog
-------------------------------------------------------------------------------
Tabbed by:HairBear

This is not a complete and finished work. I could not find a decent tab for this song, so,
I tried to tab it myself. If anyone out there can improve it, please do so. This is my very
first try at tablature, I hope you can make good use of it.

The first three parts are played clean, while the rest is muddy distortion. Parts are not in
order per se. Chord substitutions can be used for personal playing style...

Tuning: E flat

e|---4---4---5---5---4---4---5---5---4---4---5---5---4---4---5---5-----------|
B|-5---5---5---5---5---5---5---5---5---5---5---5---5---5---5---5-------------|
G|---------------------------------------------------------------------------|
D|---------------------------------------------------------------------------|
A|---------------------------------------------------------------------------|
E|---------------------------------------------------------------------------|

e|-----0-------7-------2--------------------------7--------------------------|
B|-----0-------7-------2------7-----5-----9-------7-9-10-10-10-----7------5--|
G|-----1-------8-------3------7-----6-----9-------8-9-9--9--9------7-----6---|
D|-----2-------9-------4----7-----7-------9-------9-9-11-11-11---7-----7-----|
A|-----2-------9-------4--5-----0---------7-------9-9-9--9--9--5-----0-------|
E|-0-0-0---7-7-7---2-2-2--------------0-0-0---7-7-7--------------------------|

e|-----0-------7-------2---------------2-2-2-2---------0-0-0-0-0-0-0-0-0-----|
B|-----0-------7-------2------7-----5--3-3-3-3-2-2-2-2-0-0-0-0-0-0-0-0-0-----|
G|-----1-------8-------3------7-----6--2-2-2-2-2-2-2-2-1-1-1-1-1-1-1-1-1-----|
D|-----2-------9-------4----7-----7----0-0-0-0-2-2-2-2-2-2-2-2-2-2-2-2-2-----|
A|-----2-------9-------4--5-----0--------------0-0-0-0-2-2-2-2-2-2-2-2-2-----|
E|-0-0-0---7-7-7---2-2-2-------------------------------0-0-0-0-0-0-0-0-0-----|

e|---------------------------------------------------------------------------|
B|---------------------------------------------------------------------------|
G|-2-2--7-7-----4b5br4b5-4-2-----2-2--7-7-----4b5br4b5-4-2-------------------|
D|-2-2--7-7-4-4--------------4-2-2-2--7-7-4-4--------------4-2---------------|
A|-0-0--5-5-4-4------------------0-0--5-5-4-4--------------------------------|
E|----------2-2---------------------------2-2--------------------------------|

e|---------------------------------------------------------------------------|
B|---------------------------------------------------------------------------|
G|-2-2--7-7-----4b5br4b5-4-2-----2-2-----------------------------------------|
D|-2-2--7-7-4-4--------------4-2-2-2--5-5-5-5-4-4-4-4-4-4-4-4----------------|
A|-0-0--5-5-4-4------------------0-0--5-5-5-5-4-4-4-4-4-4-4-4----------------|
E|----------2-2-----------------------3-3-3-3-2-2-2-2-2-2-2-2----------------|

e|---------------------------------------------------------------------------|
B|---------------------------------------------------------------------------|
G|-5-5-5-5-5-5-5-5-7-7-7-7-7-7-7-7-12---11--11/12\11-9--7/9------------------|
D|-5-5-5-5-5-5-5-5-7-7-7-7-7-7-7-7----------------------7/9------------------|
A|-3-3-3-3-3-3-3-3-5-5-5-5-5-5-5-5-10---9---9-/10\9--7--5/7------------------|
E|-3-3-3-3-3-3-3-3-5-5-5-5-5-5-5-5-------------------------------------------|

e|---------------------------------------------------------------------------|
B|---------------------------------------------------------------------------|
G|-5-5-5-5-5-5-5-5-4-4-4-4-4-4-4-4-------------------------------------------|
D|-5-5-5-5-5-5-5-5-4-4-4-4-4-4-4-4-2-2-2-2-2-2-2-2-2-2-2-2-2-----------------|
A|-3-3-3-3-3-3-3-3-2-2-2-2-2-2-2-2-2-2-2-2-2-2-2-2-2-2-2-2-2-----------------|
E|-3-3-3-3-3-3-3-3-2-2-2-2-2-2-2-2-0-0-0-0-0-0-0-0-0-0-0-0-0-----------------|

e|---------------------------------------------------------------------------|
B|---------------------------------------------------------------------------|
G|---------7-7-xxxx--------4---3-----------7-7-------------4---3---2---------|
D|-7-7-xxxx7-7-xxxx4-4-xxxx4---3---7-7-xxxx7-7-xxxx4-4-xxxx4---3---2---------|
A|-7-7-xxxx5-5-xxxx4-4-xxxx2---1---7-7-xxxx5-5-xxxx4-4-xxxx2---1---0---------|
E|-5-5-xxxx--------2-2-xxxx--------5-5-xxxx----xxxx2-2-xxxx------------------|


************************************

| /   slide up
| \   slide down
| h   hammer-on
| p   pull-off
| ~   vibrato
| +   harmonic
| x   Mute note
| b   Bend
| pb  Pre-bend
| br  Bend release
| pbr Pre-bend release
| brb Bend release bend

************************************
Tap to rate this tab
# A B C D E F G H I J K L M N O P Q R S T U V W X Y Z