Song name
# A B C D E F G H I J K L M N O P Q R S T U V W X Y Z

Span - Babys Come Back tab

This song is a neck crasher (if you whant to listen to it, you can find it on You Tube), 
it doesn't sound cool when you play it just on the guitar.
Drums and the creshendo bas made this song so cool.
I hope I got it right, enjoy it!


|----------------------------------------------------|
|----------------------------------------------------|
|-6-6-6-6-6-6-6-6-6-6-6-6-4-4-4-4-4-3-3-3-3-3-3-3----|
|-6-6-6-6-6-6-6-6-6-6-6-6-4-4-4-4-4-3-3-3-3-3-3-3----| X3
|-4-4-4-4-4-4-4-4-4-4-4-4-2-2-2-2-2-1-1-1-1-1-1-1----|
|----------------------------------------------------|

|----------------|
|----------------|
|-6-6--6--4-4--3-|
|-6-6--6--4-4--3-|X2
|-4-4--4--2-2--1-|
|----------------|

|-------------------------------------------------------------------|
|-------------------------------------------------------------------|
|--------------------------------------/9-9-9-9-9/11-11-11-9h11p9---|
|-/11-11-11-11-11-11-11-11-11-11-11-11------------------------------|
|-------------------------------------------------------------------|
|-------------------------------------------------------------------|
 slightly p.m____________________________________________________

|---------------------------------------------------------------------------------|
|---------------------------------------{12-12-12-12-12-11-11-11-11-11-11-11-11}--|
|---------------------------------------------------------------------------------|
|-/11-11-11-11-11-11-11-11-11-11-11-11--{9--9--9--9--9--8--8--8--8--8--8--8--8-}--|
|---------------------------------------------------------------------------------|
|---------------------------------------------------------------------------------|
 _____________________________________   release p.m

                                         i think it one of these two progressions.
                                           please email me if you work it out.

           6x
|----------||--------------|
|---------o||--------------|
|-6-6-6-6--||-4-4-4-4-4----|
|-6-6-6-6--||-4-4-4-4-4----|
|-4-4-4-4-o||-2-2-2-2-2----|
|----------||--------------|

|----------------------------------------------------|
|----------------------------------------------------|
|-6-6-6-6-6-6-6-6-6-6-6-6-4-4-4-4-4-3-3-3-3-3-3-3----|
|-6-6-6-6-6-6-6-6-6-6-6-6-4-4-4-4-4-3-3-3-3-3-3-3----| X5  (3rd one is muffled)
|-4-4-4-4-4-4-4-4-4-4-4-4-2-2-2-2-2-1-1-1-1-1-1-1----|
|----------------------------------------------------|

|---------------------------------------|
|---------------------------------------|
|-6-6--6----4-4-4-4-4-4--3-3-3-3-3-3----|
|-6-6--6----4-4-4-4-4-4--3-3-3-3-3-3----|
|-4-4--4----2-2-2-2-2-2--1-1-1-1-1-1----|
|---------------------------------------|

|-------------------------------------------------------------------|
|-------------------------------------------------------------------|
|--------------------------------------/9-9-9-9-9/11-11-11-9h11p9---|
|-/11-11-11-11-11-11-11-11-11-11-11-11------------------------------|
|-------------------------------------------------------------------|
|-------------------------------------------------------------------|
 slightly p.m____________________________________________________

|---------------------------------------------------------------------------------|
|---------------------------------------{12-12-12-12-12-11-11-11-11-11-11-11-11}--|
|---------------------------------------------------------------------------------|
|-/11-11-11-11-11-11-11-11-11-11-11-11--{9--9--9--9--9--8--8--8--8--8--8--8--8-}--|
|---------------------------------------------------------------------------------|
|---------------------------------------------------------------------------------|
 _____________________________________   release p.m

                                         i think it one of these two progressions.
                                           please email me if you work it out.
       6x          4X
|----------||----------||
|---------o||---------o||
|-6-6-6-6--||-4-4-4-4--||
|-6-6-6-6--||-4-4-4-4--||
|-4-4-4-4-o||-2-2-2-2-o||
|----------||----------||

|----------------------------------------------------|
|----------------------------------------------------|
|-6-6-6-6-6-6-6-6-6-6-6-6-4-4-4-4-4-3-3-3-3-3-3-3----|
|-6-6-6-6-6-6-6-6-6-6-6-6-4-4-4-4-4-3-3-3-3-3-3-3----| X4  (3rd one is muffled)
|-4-4-4-4-4-4-4-4-4-4-4-4-2-2-2-2-2-1-1-1-1-1-1-1----|
|----------------------------------------------------|

|--------------------------------------------------------|
|--------------12----------------------------------------|
|-----13-13-15----15-13-15p13-15b16-15b16-15b16----------|
|-/15-------------------------------------------15b17r15-|
|--------------------------------------------------------|
|--------------------------------------------------------|

|-------------------------------------------------------------|
|---------------------12--------------------------------------|
|-----13-13-13-13-15----15-13-15p13-13-13-15-15-16-16-15-15---|
|-/15---------------------------------------------------------|
|-------------------------------------------------------------|
|-------------------------------------------------------------|

|-------------------------------------------------------------|*bend up, release and 

|-------------------------------------12-------------------|over and over.
|-13-13-15-15-16-16-15-15----13-13-15----15-13-15-15^---15*|^bend up then 

|--------------------------/15-----------------------------|you have to slide up
|----------------------------------------------------------|to reach the
|----------------------------------------------------------|very high note.

                                                  X8 (last play one '775' in time with each'back')
|--------------------------------------------------||------------|
|-------------------------------------------------o||------------|
|-7-7-7-7-7-7-7-7-7-7-7-7-5-5-5-5-5-4-4-4-4-4-4-4--||-7--0-------|
|-7-7-7-7-7-7-7-7-7-7-7-7-5-5-5-5-5-4-4-4-4-4-4-4--||-7--0-------|
|-5-5-5-5-5-5-5-5-5-5-5-5-3-3-3-3-3-2-2-2-2-2-2-2-o||-5--0-------|
|--------------------------------------------------||------------|
Tap to rate this tab
 
# A B C D E F G H I J K L M N O P Q R S T U V W X Y Z