Song name
# A B C D E F G H I J K L M N O P Q R S T U V W X Y Z

Spandau Ballet - Reformation tab

SYNTH PARTS (arranged for guitar):

1st melody:
E|----5---------|----3---------|
B|-3-----6--5-6-|-------5--6-5-|
G|--------------|-5------------|

End of 1st melody:
E|-------0------|------0-----0-|
B|----1-----1---|--1-------1---|
G|-2---2--2---2-|----2---2-----|

2nd melody:
G|---------------|---------------|---------------|-0-0-0---0-0-0---|
D|-0-0-0---0-p-0-|---------------|---------------|-------3-------3-|
A|-------3-------|-3-3-3-2-3-p-3-|-0-0-0---0-p-0-|-----------------|
E|---------------|---------------|-------3-------|-----------------|

It plays in one time with bass solo (00:37):
G|----------|----------|----------|------0---|----------|
D|-0--------|----------|-0----3---|-2--------|----------|
A|------3---|-2----1---|----------|----------|-0--------|
E|----------|----------|----------|----------|----------|


CHORDS STRUCTURE:
Intro (plays with the 1st melody):
Dm C

End of the intro (1st melody):
Am

Lyrics part (plays with the 2nd melody):
Dm C Am G

You can play these chords in one time with bass solo (actually? guitar doesn't play in 
this part of the song, but anyway :)):
Dm C Bm A#
Dm Fm Em G
Dm C Bm A# Am
Tap to rate this tab
 
# A B C D E F G H I J K L M N O P Q R S T U V W X Y Z