Song name
# A B C D E F G H I J K L M N O P Q R S T U V W X Y Z

Spandau Ballet - Gold tab

Intro: Keyboard

Verser :keyboard


Chorus:


        You     are       Gold

        F#   -  G#   -     A#  F     F# -  G#  -    A#   F     F# - G#       F#
e------------------------|------------------------|------------------------|----|
B------------------------|------------------------|------------------------|----|
G------------------------|-----10-----------------|------10----------------|----|
D-------4-------6--------|-8---10----4-----6------|-8----10----4-----6-----|-4--|
A-------4-------6--------|-8---8-----4-----6------|-8----8-----4-----6-----|-4--|
E-------2-------4--------|-6---------2-----4------|-6----------2-----4-----|-2--|

  G#                       F        F#
e------------------------|------------------------|
B------------------------|------------------------|
G------------------------|------------------------|
D-6----------------------|-3--------4-------------|
A-6----------------------|-3--------4-------------|
E-4----------------------|-1--------2-------------|


You     are       Gold

        F#   -  G#   -     A#- F     F# -  G#  -    A#   F     F# -  G#      F#
e------------------------|------------------------|------------------------|----|
B------------------------|------------------------|-----------------------------|
G------------------------|-----10-----------------|------10----------------|----|
D-------4-------6--------|-8---10----4-----6------|-8----10----4-----6-----|-4--|
A-------4-------6--------|-8---8-----4-----6------|-8----8-----4-----6-----|-4--|
E-------2-------4--------|-6---------2-----4------|-6----------2-----4-----|-2--|


  G#                       F        F#  - F# - G#
e------------------------|------------------------|
B------------------------|------------------------|
G------------------------|------------------------|
D-6----------------------|-3--------4-----4----6--|
A-6----------------------|-3--------4-----4----6--|
E-4----------------------|-1--------2-----2----4--|
Tap to rate this tab
 
# A B C D E F G H I J K L M N O P Q R S T U V W X Y Z