Song name
# A B C D E F G H I J K L M N O P Q R S T U V W X Y Z

Spank Pilgrim - Come Home tab

Capo on 3rd Fret


E -------------------------------0--------------------------0----------------------2---------------------|
B ---------------3------------3------------3------------3---------3------------3-------------------------|
G ---------2-------2-------2----------2-----2-------2--------0-----0-------0-----------------------------|2x
D ------------0------0---0--------------0-----0---0------------0-----0---0-------------------------------|
A ------2--------------2-----------2-------------2----------2-----------2--------------------------------|
E  ------------------------------------------------------------------------------------------------------|

Chorus

E --2---------0---------0--------0--------0----------2------------|
B --3---------3---------3--------3--------3----------3------------|
G --2---------2---------0--------2--------2----------2------------|
D --0---------0---------0--------0--------0----------0------------|
A --0---------2---------2--------2--------0----------0------------|
E --0----------0---------3--------0--------0----------0-----------|
Tap to rate this tab
# A B C D E F G H I J K L M N O P Q R S T U V W X Y Z