Song name
# A B C D E F G H I J K L M N O P Q R S T U V W X Y Z

Sparkadia - Jealousy tab

http://sparkadia.wordpress.com/

Intro (This bass bit is played through most of the song):
|-----------------------------------------------------------|
|-----------------------------------------------------------|
|-----------------------------------------------------------|
|-----------------------------------------------------------|
|-----------------------------------------------------------|
|-2--2-2-2--2-2-2--2-2-2--2-2-4--4-4-4--4-4-4--4-4-4--4-4-4-|

|--------------------------------------------------------|
|--------------------------------------------------------|
|--------------------------------------------------------|
|--------------------------------------------------------|
|--------------------------------------------------------|
|-4-4-4--4-4-4--4-4-4--4-4-6--6-6-6--6-6-6--6-6-6--6-6-2-|

|--------------------------------------------------------|
|--------------------------------------------------------|
|--------------------------------------------------------|
|--------------------------------------------------------|
|--------------------------------------------------------|
|-2-2-2--2-2-2--2-2-2--2-2-4--4-4-4--4-4-4--4-4-4--4-4-4-|

|--------------------------------------------------------|
|--------------------------------------------------------|
|--------------------------------------------------------|
|--------------------------------------------------------|
|--------------------------------------------------------|
|-4-4-4--4-4-4--4-4-4--4-4-6--6-6-6--6-6-8--8-8-9--9-9-2-|

|--------------------------------------------------------|
|--------------------------------------------------------|
|--------------------------------------------------------|
|--------------------------------------------------------|
|--------------------------------------------------------|
|-2-2-2--2-2-2--2-2-2--2-2-4--4-4-4--4-4-4--4-4-4--4-4-4-|

|--------------------------------------------------------|
|--------------------------------------------------------|
|--------------------------------------------------------|
|--------------------------------------------------------|
|--------------------------------------------------------|
|-4-4-4--4-4-4--4-4-4--4-4-6--6-6-6--6-6-6--6-6-6--6-6-2-|

|--------------------------------------------------------|
|--------------------------------------------------------|
|--------------------------------------------------------|
|--------------------------------------------------------|
|--------------------------------------------------------|
|-2-2-2--2-2-2--2-2-2--2-2-4--4-4-4--4-4-4--4-4-4--4-4-4-|

|--------------------------------------------------------|
|--------------------------------------------------------|
|--------------------------------------------------------|
|--------------------------------------------------------|
|--------------------------------------------------------|
|-4-4-4--4-4-4--4-4-4--4-4-6--6---6----------------------|


|------------------------------------------------------------------------------------------------|
|------------------------------------------------------------------------------------------------|
|-6--6--6--6--6--6--6--6--6--6--6--6--6--6--6--6-------------------------------------------------|
|-6--6--6--6--6--6--6--6--6--6--6--6--6--6--6--6--6--6--6--6--6--6--6--6--6--6--6--6--6--6--6--6-|
|-4--4--4--4--4--4--4--4--4--4--4--4--4--4--4--4--6--6--6--6--6--6--6--6--6--6--6--6--6--6--6--6-|
|-------------------------------------------------4--4--4--4--4--4--4--4--4--4--4--4--4--4--4--4-|

|------------------------------------------------------------------------------------------------|
|------------------------------------------------------------------------------------------------|
|-------------------------------------------------6--6--6--6--6--6--6--6--6--6--6--6--6--6--6--6-|
|-6--6--6--6--6--6--6--6--6--6--6--6--6--6--6--6--6--6--6--6--6--6--6--6--6--6--6--6--6--6--6--6-|
|-6--6--6--6--6--6--6--6--6--6--6--6--6--6--6--6--4--4--4--4--4--4--4--4--4--4--4--4--4--4--4--4-|
|-4--4--4--4--4--4--4--4--4--4--4--4--4--4--4--4-------------------------------------------------|

|------------------------------------------------------------------------------------------------|
|------------------------------------------------------------------------------------------------|
|-------------------------------------------------8--8--8--8--8--8--8--8--8--8--8--8--8--8--8--8-|
|-8--8--8--8--8--8--8--8--8--8--8--8--8--8--8--8--8--8--8--8--8--8--8--8--8--8--8--8--8--8--8--8-|
|-8--8--8--8--8--8--8--8--8--8--8--8--8--8--8--8--6--6--6--6--6--6--6--6--6--6--6--6--6--6--6--6-|
|-6--6--6--6--6--6--6--6--6--6--6--6--6--6--6--6-------------------------------------------------|



Verse:
|-----------------------------------------------------------|
|-----------------------------------------------------------|
|-----------------------------------------------------------|
|-----------------------------------------------------------|
|-----------------------------------------------------------|
|-2--2-2-2--2-2-2--2-2-2--2-2-4--4-4-4--4-4-4--4-4-4--4-4-4-|

|--------------------------------------------------------|
|--------------------------------------------------------|
|--------------------------------------------------------|
|--------------------------------------------------------|
|--------------------------------------------------------|
|-4-4-4--4-4-4--4-4-4--4-4-6--6-6-6--6-6-6--6-6-6--6-6-2-|

|--------------------------------------------------------|
|--------------------------------------------------------|
|--------------------------------------------------------|
|--------------------------------------------------------|
|--------------------------------------------------------|
|-2-2-2--2-2-2--2-2-2--2-2-4--4-4-4--4-4-4--4-4-4--4-4-4-|

|--------------------------------------------------------|
|--------------------------------------------------------|
|--------------------------------------------------------|
|--------------------------------------------------------|
|--------------------------------------------------------|
|-4-4-4--4-4-4--4-4-4--4-4-6--6-6-6--6-6-8--8-8-9--9-9-2-|

|--------------------------------------------------------|
|--------------------------------------------------------|
|--------------------------------------------------------|
|--------------------------------------------------------|
|--------------------------------------------------------|
|-2-2-2--2-2-2--2-2-2--2-2-4--4-4-4--4-4-4--4-4-4--4-4-4-|

|--------------------------------------------------------|
|--------------------------------------------------------|
|--------------------------------------------------------|
|--------------------------------------------------------|
|--------------------------------------------------------|
|-4-4-4--4-4-4--4-4-4--4-4-6--6-6-6--6-6-6--6-6-6--6-6-2-|

|--------------------------------------------------------|
|--------------------------------------------------------|
|--------------------------------------------------------|
|--------------------------------------------------------|
|--------------------------------------------------------|
|-2-2-2--2-2-2--2-2-2--2-2-4--4-4-4--4-4-4--4-4-4--4-4-4-|

|--------------------------------------------------------|
|--------------------------------------------------------|
|--------------------------------------------------------|
|--------------------------------------------------------|
|--------------------------------------------------------|
|-4-4-4--4-4-4--4-4-4--4-4-6--6---6----------------------|


Chorus:
|------------------------------------------------------------------------------------------------|
|------------------------------------------------------------------------------------------------|
|-6--6--6--6--6--6--6--6--6--6--6--6--6--6--6--6-------------------------------------------------|
|-6--6--6--6--6--6--6--6--6--6--6--6--6--6--6--6--6--6--6--6--6--6--6--6--6--6--6--6--6--6--6--6-|
|-4--4--4--4--4--4--4--4--4--4--4--4--4--4--4--4--6--6--6--6--6--6--6--6--6--6--6--6--6--6--6--6-|
|-------------------------------------------------4--4--4--4--4--4--4--4--4--4--4--4--4--4--4--4-|

|------------------------------------------------------------------------------------------------|
|------------------------------------------------------------------------------------------------|
|-------------------------------------------------6--6--6--6--6--6--6--6--6--6--6--6--6--6--6--6-|
|-6--6--6--6--6--6--6--6--6--6--6--6--6--6--6--6--6--6--6--6--6--6--6--6--6--6--6--6--6--6--6--6-|
|-6--6--6--6--6--6--6--6--6--6--6--6--6--6--6--6--4--4--4--4--4--4--4--4--4--4--4--4--4--4--4--4-|
|-4--4--4--4--4--4--4--4--4--4--4--4--4--4--4--4-------------------------------------------------|

|------------------------------------------------------------------------------------------------|
|------------------------------------------------------------------------------------------------|
|-------------------------------------------------8--8--8--8--8--8--8--8--8--8--8--8--8--8--8--8-|
|-8--8--8--8--8--8--8--8--8--8--8--8--8--8--8--8--8--8--8--8--8--8--8--8--8--8--8--8--8--8--8--8-|
|-8--8--8--8--8--8--8--8--8--8--8--8--8--8--8--8--6--6--6--6--6--6--6--6--6--6--6--6--6--6--6--6-|
|-6--6--6--6--6--6--6--6--6--6--6--6--6--6--6--6-------------------------------------------------|


Verse
Chorus


Bridge:
|-------------------------------------------------------------|
|-------------------------------------------------------------|
|-6------6-------6-------6-------5------5-------5-------5-----|
|----6-------6-------6-------6------6-------6-------6-------6-|
|-------------------------------------------------------------|
|-------------------------------------------------------------|

|-------------------------------------------------------------|
|-------------------------------------------------------------|
|-6------6-------8-------6-------5------5-------5-------5-----|
|----6-------6-------6-------6------6-------6-------6-------6-|
|-------------------------------------------------------------|
|-------------------------------------------------------------|

|-------------------------------------------------------------|
|-------------------------------------------------------------|
|-3------3-------3-------3-------6------6-------8-------6-----|
|----4-------4-------4-------4------6-------6-------6-------6-|
|-------------------------------------------------------------|
|-------------------------------------------------------------|

|-------------------------------------------------------------|
|-------------------------------------------------------------|
|-3------3-------3-------3-------6------6-------8-------8-----|
|----4-------4-------4-------4------6-------6-------6-------6-|
|-------------------------------------------------------------|
|-------------------------------------------------------------|



Final Chorus:
|------------------------------------------------------------------------------------------------|
|------------------------------------------------------------------------------------------------|
|-6--6--6--6--6--6--6--6--6--6--6--6--6--6--6--6-------------------------------------------------|
|-6--6--6--6--6--6--6--6--6--6--6--6--6--6--6--6--6--6--6--6--6--6--6--6--6--6--6--6--6--6--6--6-|
|-4--4--4--4--4--4--4--4--4--4--4--4--4--4--4--4--6--6--6--6--6--6--6--6--6--6--6--6--6--6--6--6-|
|-------------------------------------------------4--4--4--4--4--4--4--4--4--4--4--4--4--4--4--4-|

|------------------------------------------------------------------------------------------------|
|------------------------------------------------------------------------------------------------|
|-------------------------------------------------6--6--6--6--6--6--6--6--6--6--6--6--6--6--6--6-|
|-6--6--6--6--6--6--6--6--6--6--6--6--6--6--6--6--6--6--6--6--6--6--6--6--6--6--6--6--6--6--6--6-|
|-6--6--6--6--6--6--6--6--6--6--6--6--6--6--6--6--4--4--4--4--4--4--4--4--4--4--4--4--4--4--4--4-|
|-4--4--4--4--4--4--4--4--4--4--4--4--4--4--4--4-------------------------------------------------|

|------------------------------------------------------------------------------------------------|
|------------------------------------------------------------------------------------------------|
|-6--6--6--6--6--6--6--6--6--6--6--6--6--6--6--6-------------------------------------------------|
|-6--6--6--6--6--6--6--6--6--6--6--6--6--6--6--6--6--6--6--6--6--6--6--6--6--6--6--6--6--6--6--6-|
|-4--4--4--4--4--4--4--4--4--4--4--4--4--4--4--4--6--6--6--6--6--6--6--6--6--6--6--6--6--6--6--6-|
|-------------------------------------------------4--4--4--4--4--4--4--4--4--4--4--4--4--4--4--4-|

|------------------------------------------------------------------------------------------------|
|------------------------------------------------------------------------------------------------|
|-------------------------------------------------6--6--6--6--6--6--6--6--6--6--6--6--6--6--6--6-|
|-6--6--6--6--6--6--6--6--6--6--6--6--6--6--6--6--6--6--6--6--6--6--6--6--6--6--6--6--6--6--6--6-|
|-6--6--6--6--6--6--6--6--6--6--6--6--6--6--6--6--4--4--4--4--4--4--4--4--4--4--4--4--4--4--4--4-|
|-4--4--4--4--4--4--4--4--4--4--4--4--4--4--4--4-------------------------------------------------|

|------------------------------------------------------------------------------------------------|
|------------------------------------------------------------------------------------------------|
|-------------------------------------------------8--8--8--8--8--8--8--8--8--8--8--8--8--8--8--8-|
|-8--8--8--8--8--8--8--8--8--8--8--8--8--8--8--8--8--8--8--8--8--8--8--8--8--8--8--8--8--8--8--8-|
|-8--8--8--8--8--8--8--8--8--8--8--8--8--8--8--8--6--6--6--6--6--6--6--6--6--6--6--6--6--6--6--6-|
|-6--6--6--6--6--6--6--6--6--6--6--6--6--6--6--6-------------------------------------------------|


Outro (Repeat Intro as required)
Tap to rate this tab
# A B C D E F G H I J K L M N O P Q R S T U V W X Y Z