Sparkadia - Jealousy tab

Artist:Sparkadia
Song:Jealousy
Album: Postcards

Intro: Bass guitar on e string
e-22222222--44444444-44444444--66666666--22222222--44444444-44444444--6666889 repeat as 
times

Then guitar comes in playin chorus riff

   F# strummed 8 times   G# strummed 8x   A#m
e--2                     4                6
b--2                     4                6
g--3                     5                6
d--4                     6                8
a--4                     6                8
e--2                     4                6


Verse: just bass riff

Chorus: Same guitar and bass

Bridge:
|-------------------------------------------------------------|
|-------------------------------------------------------------|
|-6------6-------6-------6-------5------5-------5-------5-----|
|----6-------6-------6-------6------6-------6-------6-------6-|
|-------------------------------------------------------------|
|-------------------------------------------------------------|

|-------------------------------------------------------------|
|-------------------------------------------------------------|
|-6------6-------8-------6-------5------5-------5-------5-----|
|----6-------6-------6-------6------6-------6-------6-------6-|
|-------------------------------------------------------------|
|-------------------------------------------------------------|

|-------------------------------------------------------------|
|-------------------------------------------------------------|
|-3------3-------3-------3-------6------6-------8-------6-----|
|----4-------4-------4-------4------6-------6-------6-------6-|
|-------------------------------------------------------------|
|-------------------------------------------------------------|

|-------------------------------------------------------------|
|-------------------------------------------------------------|
|-3------3-------3-------3-------6------6-------8-------8-----|
|----4-------4-------4-------4------6-------6-------6-------6-|
|-------------------------------------------------------------|
|-------------------------------------------------------------|

Chorus: same old

Outro: same bass


Lyrics:
I can't sleep, I can't eat
I can't leave till I have my peace
No more fights, no more wars
No more deals to settle our scores
I won't hide, I won't go
Become someone you used to know
'Cause there's a little bit of me
In a little of you
Don't deny what you know is true

Jealousy, look what it's done to you
Look what it's done to me
Jealousy

I've been there, on the other side
Trying to get her to change her mind
Hanging out, dropping in
Trying to revive what had once had been alive
I know exactly how it goes
You think you can change the girl you used to know
There's a little bit of me
In a little of you
Don't deny what you know is true

Jealousy, look what it's done to you
Look what it's done to me
Jealousy

If you don't leave it
You'll never be free of it
If you don't leave it
You'll never be free of it
If you don't leave it
You'll never be free of it
It will eat you up
and spit you out
When you try to get to her
She'll never hear you even when you shout

Jealousy, look what it's done to you
Look what it's done to me
Jealousy, I know what lies below
I already knew this long ago
Jealousy

And there u have it

Not perfect then email me at maroispear@hotmail.com or comment/correction down the 
If it is perfect (probs not) rate 5 stars and thanks for reading
Tap to rate this tab
 
# A B C D E F G H I J K L M N O P Q R S T U V W X Y Z