Song name
# A B C D E F G H I J K L M N O P Q R S T U V W X Y Z

Sparklehorse - Ghost Of His Smile tab

Sparklehorse
Ghost Of His Smile - Good Morning Spider (1998)

Riff 1
e|-------------------------------------|
B|-------------------------------------|
G|---------------------7----6----------|
D|-7----6----4----2----7----6----2-----|
A|-7----6----4----2----5-x8-4-x8-2-----|
E|-5-x8-4-x8-2-x8-0-x8-----------0-x16-|

Riff 2
e|-----0--3-1-0------0--3-1-0--8-7-5-3-1-0---0-|
B|-1-3-----------1-3-----------------------3---|
G|---------------------------------------------|
D|---------------------------------------------|
A|---------------------------------------------|
E|---------------------------------------------|

Riff 3
e|-----------------|
B|-----------------|
G|-----------9-----|
D|-9----7----9-----|
A|-9----7----7-x16-|
E|-7-x8-5-x8-------|

Riff 4
e|-----------------|
B|-----------------|
G|-7----6----------|
D|-7----6----2-----|
A|-5-x8-4-x8-2-----|
E|-----------0-x16-|
Tap to rate this tab
# A B C D E F G H I J K L M N O P Q R S T U V W X Y Z