Song name
# A B C D E F G H I J K L M N O P Q R S T U V W X Y Z

Sparklehorse - Wish You Were Here tab

---------------------------------------------------
      Wish You Were Here - Sparklehorse (INTRO)
---------------------------------------------------
Tabbed by: Patrik Gesko
Email: patrezzator@gmail.com



e|-----------------------------|
B|----------------9------------| 2x
G|----------7-9-----9-7--------|
D|---7-7-9---------------------|
A|-----------------------------|
E|-----------------------------|

e|-----------------------------|
B|-----------------------------| 2x
G|----------7-9-----9-7--------|
D|---7-7-9--------------9-7----|
A|-----------------------------|
E|-----------------------------|

e|-----------------------------|
B|-----------------------------|
G|---7-9-----------------------|
D|--------7-5------------------|
A|-----------------------------|
E|-----------------------------|
Tap to rate this tab
 
# A B C D E F G H I J K L M N O P Q R S T U V W X Y Z