Song name
# A B C D E F G H I J K L M N O P Q R S T U V W X Y Z

Sparklehorse - Sea Of Teeth tab

Artist: Sparklehorse
Song: Sea of Teeth
Album: It's a Wonderful Life

Tabbed by Charlie Lewis - 05/09/2010

A truly breathtaking song, tabbed for solo guitar, you can either play it like I have 
out or lightly strum. I know the song layout isn't here but you should get it from the song.

Tuning: C# A D G B E

R.I.P Mark Linkous


Verse

E | ----------------|----------------|----------------|---------------- |
B | ----------------|----------------|----------------|---------------- |
G |.----------------|----------------|----------------|----------------.|
D |.3---3---3---3---|3---3---3---3---|3---3---3---3---|3---3---3---3---.|
A | ------4-------4-|------4---4---4-|------4-------4-|------4---4---4- |
C#| 0---0---0---0---|0---0---0---0---|5---5---5---5---|5---5---5---5--- |


Chorus                                           (Note: Below change only on
                                                 returning to verse or outro)

E |----------------|----------------|----------------|----------------|
B |----------------|----------------|----------------|----------------|
G |----------------|----------------|----------------|----------------|
D |6---6---6---6---|3---3---3---3---|6---6---6---6---|3---3---6---4---|
A |------4-------4-|------4-------4-|------4-------4-|--4---4---4---4-|
C#|4---4---4---4---|5---5---5---5---|4---4---4---4---|5---5---5---2---|

Can you feel the wind,
of Venus on your skin?
Can you taste the crush,
of a sunset's dying blush?

Stars will always hang,
in summer's bleeding fang.

Can you feel the rings,
of Saturn on your finger?
Can you taste the ghosts,
who shed their creaking hosts?

But seas forever boil,
Trees will turn to soil

Stars will always hang,
in summer's bleeding fangs
Seas forever boil,
Trees will turn to soil.
Tap to rate this tab
 
# A B C D E F G H I J K L M N O P Q R S T U V W X Y Z