Song name
# A B C D E F G H I J K L M N O P Q R S T U V W X Y Z

Sparklehorse - Sea Of Teeth tab

-------------------------------------------------------------------------------
			     SEA OF TEETH - Sparklehorse
-------------------------------------------------------------------------------
Tabbed by: derekjeenz 
Email:

Tuning: standard 

this is a very beautiful but repetitive song. piano plays chord variations, 
but guitar only plays the 2 sequences below. the 2nd begins after the "stars 
will always hang" line, but is only repeated a couple times. 

e|---------------------------------------------------------------------------|
B|---------------------------------------------------------------------------|
G|---------------------------------------------------------------------------|
D|---------------------------------------------------------------------------|
A|--------------8--------8----8------------8--------8----8-------------------|
E|--------------9-------(9)--------9-------9-------(9)--------9--------------|

e|---------------------------------------------------------------------------|
B|---------------------------------------------------------------------------|
G|---------------------------------------------------------------------------|
D|-----------------------------------------6---------------------------------|
A|--------------8--------8----8-------------------------8--------------------|
E|--------------9-------(9)--------9-------9------------------9--------------|

stars will always hang...
e|---------------------------------------------------------------------------|
B|---------------------------------------------------------------------------|
G|---------------------------------------------------------------------------|
D|--6----------------6--------------------6---------------6------------------|
A|-----------------------------------------------------------------------8---|
E|--9----------------------9--------------9----------------------9-----------|

e|---------------------------------------------------------------------------|
B|---------------------------------------------------------------------------|
G|---------------------------------------------------------------------------|
D|---------------------------------------------------------------------------|
A|--8----------------8---------8---------------------------------------------|
E|--------9--------------------------9---------------------------------------|

************************************

| /   slide up
| \   slide down
| h   hammer-on
| p   pull-off
| ~   vibrato
| +   harmonic
| x   Mute note
| b   Bend
| pb  Pre-bend
| br  Bend release
| pbr Pre-bend release
| brb Bend release bend

************************************
Tap to rate this tab
 
# A B C D E F G H I J K L M N O P Q R S T U V W X Y Z