Song name
# A B C D E F G H I J K L M N O P Q R S T U V W X Y Z

Sparks The Rescue - Nurse Nurse Im Losing My Patience tab

Tuning:

 Intro

e|---------------------------------]
B|---------------------------------]
G|---------------------------------]
D|--2--/----4---44-----------------]
A|--2-/-----4---44-----------------]
D|--2-/-----4---44---2h4p2--0h2p0--]x2

e|-----------------------------------------]
B|-----------------------------------------]
G|-----------------------------------------]
D|-----------------------------------------]
A|-----------2h4-44-2-0-------2h4--44--2-0-]
D|--2p0-0---------------2p0-0--------------]  Repeat entire intro twice

     Verse

e|----------------------------------------------------------------- ]
B|----------------------------------------------------------------- ]
G|----------------------------------------------------------------- ]
D|--2/-4-4-4-4-------------0h2--------0--0-0-0-0-------0h2--------- ]
A|--2/-4-4-4-4--(X2)---2h4-----4p2-0--0--0-0-0-0---2h4-----4p2--(X2)] X2
D|--2/-4-4-4-4------------------------0--0-0-0-0------------------- ]

e|-------]
B|-------]
G|-------]
D|-------]
A|-0h2p0-]
D|-------]

        Prechorus

e|----------------------------------------]
B|----------------------------------------]
G|----------------------------------------]
D|-4----2---00--------------00------------]
A|-4----2---00---2h4-44-2-0-00-2h4-44-2-0-]
D|-4----2---00--------------00------------]X2



| /  slide up
| \  slide down
| h  hammer-on
| p  pull-off
| ~  vibrato
| +  harmonic
| x  Mute note
===============================================================================
Tap to rate this tab
 
# A B C D E F G H I J K L M N O P Q R S T U V W X Y Z