Guitaretab - guitar tabs
Song name
# A B C D E F G H I J K L M N O P Q R S T U V W X Y Z

Sparks The Rescue - Saco Boys Have No Class tab

SACO BOYS HAVE NO CLASS.

e|----------------------------|
B|----------------------------|
G|-------5-5-5-5-----9-9-9-9--|
D|-3-3-3---------3-3----------|
A|-3-3-3---------3-3----------|
D|-3-3-3---------3-3----------| X2

e|----------------------------|
B|----------------------------|
G|-------5-5-5-5-----9-9-9-9--|
D|-7-7-7---------7-7----------|
A|-7-7-7---------7-7----------|
D|-7-7-7---------7-7----------| 
[ Tab from: http://www.guitaretab.com/s/sparks-the-rescue/114217.html ]
e|-------------------|
B|-------------------|
G|-------5-5-5-5-----|
D|-7-7-7---------7-7-|
A|-7-7-7---------7-7-|
D|-7-7-7---------7-7-| 

LETS GO

e|-------------------------------|
B|-------------------------------|
G|----------5-5-5-5-5-5--9-9-9-9-|
D|-3-3-3-3--5-5-3-3-3-5--9-9-9-9-|
A|-3-3-3-3--3-3-3-3-3-3--7-7-7-7-|
D|-3-3-3-3-----------------------| X2

e|-------------------------------|
B|-------------------------------|
G|----------5-5-5-5-5-5--9-9-9-9-|
D|-7-7-7-7--5-5-3-3-3-5--9-9-9-9-|
A|-7-7-7-7--3-3-3-3-3-3--7-7-7-7-|
D|-7-7-7-7-----------------------| X2

If you have questions or whatever this is my myspace
www.myspace.com/billtheelf
yeah.
bye.
Related for Saco Boys Have No Class tab
Advertisement will be closed in 10 seconds