Song name
# A B C D E F G H I J K L M N O P Q R S T U V W X Y Z

Sparks The Rescue - The Gravity tab

-------------------------------------------------------------------------------
			                       THE GRAVITY - Sparks the Rescue
-------------------------------------------------------------------------------
Tabbed by:AcousticShred
Email:jasonmwillette@yahoo.com

Tuning:Drop D

I know all this is right, it's not that hard. The only exception is the 
lead for the breakdown.It sounds as if there is very faint guitar 
playing over the chords in the background. I more or less just wrote 
the lead. Comment back if you feel like it.






Intro

Guitar I - Clean
   D    A    Bmin    A
e|-2----0-----2------0~-------------------------------------------------------|
B|-3----2-----3------2~-------------------------------------------------------|
G|-2----2-----4------2~-------------------------------------------------------|
D|-0----2-----4------2~-------------------------------------------------------|
A|------0-----2------0~-------------------------------------------------------|
D|----------------------------------------------------------------------------|

Guitar II - Clean

e|----------------------------------------------------------------------------|
B|----------------------------------------------------------------------------|
G|----------------------------------------------------------------------------|
D|----------------------------------------------------------------------------|
A|----------------------------------------------------------------------------|
D|----------------------------------------------------------------------------|



Guitar I - Distortion

e|----------------------------------------------------------------------------|
B|----------------------------------------------------------------------------|
G|----------------------------------------------------------------------------|
D|---------------------5-7-/9~--9-7-5-----------------------------------------|
A|----5-7-9-5-/7~--7-9----------------9-7~------------------------------------|
D|----------------------------------------------------------------------------|

Guitar II - Distortion

e|----------------------------------------------------------------------------|
B|----------------------------------------------------------------------------|
G|----------------------------------------------------------------------------|
D|-5~----------7~----------9~----------7-7-7-7-7-7-7-7------------------------|
A|-5~----------7~----------9~----------7-7-7-7-7-7-7-7------------------------|
D|-5~----------7~----------9~----------7-7-7-7-7-7-7-7------------------------|



e|----------------------------------------------------------------------------|
B|----------------------------------------------------------------------------|
G|-7--7--7--9--9--9-11-11-11--12--12--12--11-11--9--9-------------------------|
D|-x--x--x--x--x--x--x--x--x---x---x---x--x--x--x--x--------------------------|
A|-5--5--5--7--7--7--9--9--9--10--10--10--9--9--7--7--------------------------|
D|----------------------------------------------------------------------------|

e|----------------------------------------------------------------------------|
B|----------------------------------------------------------------------------|
G|----------------------------------------------------------------------------|
D|-5-5-5-5~--5-5-5-5~--5-5-5-5------------------------------------------------|
A|-5-5-5-5~--5-5-5-5~--5-5-5-5------------------------------------------------|
D|-5-5-5-5~--5-5-5-5~--5-5-5-5------------------------------------------------|



e|----------------------------------------------------------------------------|
B|----------------------------------------------------------------------------|
G|-7--7--7--9--9--9-11-11-11--12--12--12--14--14--12--12----------------------|
D|-x--x--x--x--x--x--x--x--x---x---x---x---x---x---x---x----------------------|
A|-5--5--5--7--7--7--9--9--9--10--10--10--12--12--10--10----------------------|
D|----------------------------------------------------------------------------|

e|----------------------------------------------------------------------------|
B|----------------------------------------------------------------------------|
G|----------------------------------------------------------------------------|
D|-5-5-5-5~--5-5-5-5~--5-5-5-5------------------------------------------------|
A|-5-5-5-5~--5-5-5-5~--5-5-5-5------------------------------------------------|
D|-5-5-5-5~--5-5-5-5~--5-5-5-5------------------------------------------------|



e|----------------------------------------------------------------------------|
B|----------------------------------------------------------------------------|
G|-7--7--7--9--9--9-11-11-11--12--12--12--11-11-9--9--------------------------|
D|-x--x--x--x--x--x--x--x--x---x---x---x--x--x--x--x--------------------------|
A|-5--5--5--7--7--7--9--9--9--10--10--10--9--9--7--7--------------------------|
D|----------------------------------------------------------------------------|

e|----------------------------------------------------------------------------|
B|----------------------------------------------------------------------------|
G|----------------------------------------------------------------------------|
D|-7-7-7--7-7~--7-7-7---------------------------------------------------------|
A|-7-7-7--7-7~--7-7-7---------------------------------------------------------|
D|-7-7-7--7-7~--7-7-7---------------------------------------------------------|



e|----------------------------------------------------------------------------|
B|----------------------------------------------------------------------------|
G|-7--7--7--9--9--9-11-11-11--12--12--12--14--14--14--14~---------------------|
D|-x--x--x--x--x--x--x--x--x---x---x---x---x---x---x---x----------------------|
A|-5--5--5--7--7--7--9--9--9--10--10--10--12--12--12--12~---------------------|
D|----------------------------------------------------------------------------|

e|----------------------------------------------------------------------------|
B|----------------------------------------------------------------------------|
G|----------------------------------------------------------------------------|
D|-7-7-7--7-7~----------------------------------------------------------------|
A|-7-7-7--7-7~----------------------------------------------------------------|
D|-7-7-7--7-7~----------------------------------------------------------------|



Verse 1

e|---------------------------------------------------------------------------|
B|---------------------------------------------------------------------------|
G|---------------------------------------------------------------------------|
D|-7-7-7-5-5-5-4-4-4---------------7-7-7-5-5-5-4-4-4-------------------------|
A|-------------------5-5-5-5-5-5-5-------------------5-5-5-5-5-5-5-----------|
D|---------------------------------------------------------------------------|
 ~~~~~~~~~~~~~~~~~~~~~~~~~~~~~~~p.m.~~~~~~~~~~~~~~~~~~~~~~~~~~~~~~~

e|---------------------------------------------------------------------------|
B|---------------------------------------------------------------------------|
G|---------------------------------------------------------------------------|
D|-5-5--5-5--5-5--5-5--5-5-5--5-5--5-5--5-5--5-5--5-5-5----------------------|
A|-5-5--5-5--5-5--5-5--5-5-5--5-5--5-5--5-5--5-5--5-5-5----------------------|
D|-5-5--5-5--5-5--5-5--5-5-5--5-5--5-5--5-5--5-5--5-5-5----------------------|
~~~~~~~~~~~~~~~~~~~~~~~~~~~~~~~p.m.~~~~~~~~~~~~~~~~~~~~~~~~~~~~~~~


e|---------------------------------------------------------------------------|
B|---------------------------------------------------------------------------|
G|---------------------------------------------------------------------------|
D|-7-7-7-5-5-5-4-4-4---------------7-7-7-5-5-5-4-4-4-------------------------|
A|-------------------5-5-5-5-5-5-5-------------------5-5-5-5-5-5-5-----------|
D|---------------------------------------------------------------------------|
 ~~~~~~~~~~~~~~~~~~~~~~~~~~~~~~~p.m.~~~~~~~~~~~~~~~~~~~~~~~~~~~~~~~

e|---------------------------------------------------------------------------|
B|---------------------------------------------------------------------------|
G|---------------------------------------------------------------------------|
D|-9-9--9-9--9-9--9-9--9-9-9--9-9--9-9--9-9--9-9--9-9-9----------------------|
A|-9-9--9-9--9-9--9-9--9-9-9--9-9--9-9--9-9--9-9--9-9-9----------------------|
D|-9-9--9-9--9-9--9-9--9-9-9--9-9--9-9--9-9--9-9--9-9-9----------------------|
~~~~~~~~~~~~~~~~~~~~~~~~~~~~~~~p.m.~~~~~~~~~~~~~~~~~~~~~~~~~~~~~~~


e|---------------------------------------------------------------------------|
B|---------------------------------------------------------------------------|
G|---------------------------------------------------------------------------|
D|-7-7-7-5-5-5-4-4-4---------------7-7-7-5-5-5-4-4-4-------------------------|
A|-------------------5-5-5-5-5-5-5-------------------5-5-5-5-5-5-5-----------|
D|---------------------------------------------------------------------------|
 ~~~~~~~~~~~~~~~~~~~~~~~~~~~~~~~p.m.~~~~~~~~~~~~~~~~~~~~~~~~~~~~~~~

e|---------------------------------------------------------------------------|
B|---------------------------------------------------------------------------|
G|---------------------------------------------------------------------------|
D|-5-5--5-5--5-5--5-5--5-5-5--5-5--5-5--5-5--5-5--5-5-5----------------------|
A|-5-5--5-5--5-5--5-5--5-5-5--5-5--5-5--5-5--5-5--5-5-5----------------------|
D|-5-5--5-5--5-5--5-5--5-5-5--5-5--5-5--5-5--5-5--5-5-5----------------------|
~~~~~~~~~~~~~~~~~~~~~~~~~~~~~~~p.m.~~~~~~~~~~~~~~~~~~~~~~~~~~~~~~~


e|---------------------------------------------------------------------------|
B|---------------------------------------------------------------------------|
G|---------------------------------------------------------------------------|
D|-7-7-7-5-5-5-4-4-4---------------7-7-7-7-7-7-7-7-7-7-7-7-7-7-7-7~----------|
A|-------------------5-5-5-5-5-5-5-------------------------------------------|
D|---------------------------------------------------------------------------|
 ~~~~~~~~~~~~~~~~~~~~~~~~~~~~~~~p.m.~~~~~~~~~~~~~~~~~~~~~~~~~~~~~~~
                        When you get to about here ^, slowly stop muting the note

e|---------------------------------------------------------------------------|
B|---------------------------------------------------------------------------|
G|---------------------------------------------------------------------------|
D|-9-9--9-9--9-9--9-9--9-9-9--9-9--9-9--9-9--9-9--9-9-9--7~------------------|
A|-9-9--9-9--9-9--9-9--9-9-9--9-9--9-9--9-9--9-9--9-9-9--7~------------------|
D|-9-9--9-9--9-9--9-9--9-9-9--9-9--9-9--9-9--9-9--9-9-9--7~------------------|
~~~~~~~~~~~~~~~~~~~~~~~~~~~~~~~p.m.~~~~~~~~~~~~~~~~~~~~~~~~~~~~~~~


Chorus

e|---------------------------------------------------------------------------|
B|---------------------------------------------------------------------------|
G|---------------------------------------------------------------------------|
D|-0~--------------------7~--------------------9~--------------------7~------|
A|-0~--------------------7~--------------------9~--------------------7~------|
D|-0~--------------------7~--------------------9~--------------------7~------|

e|---------------------------------------------------------------------------|
B|---------------------------------------------------------------------------|
G|---------------------------------------------------------------------------|
D|-0--0--0-0--0--0--0-0--7--7--7-7--7--7--7-7--9--9--9-9--9--9--9-9--7--7----|
A|-0--0--0-0--0--0--0-0--7--7--7-7--7--7--7-7--9--9--9-9--9--9--9-9--7--7----|
D|-0--0--0-0--0--0--0-0--7--7--7-7--7--7--7-7--9--9--9-9--9--9--9-9--7--7----|



e|---------------------------------------------------------------------------|
B|---------------------------------------------------------------------------|
G|---------------------------------------------------------------------------|
D|---------------------------------------------------------------------------|
A|---------------------------------------------------------------------------|
D|---------------------------------------------------------------------------|

e|---------------------------------------------------------------------------|
B|---------------------------------------------------------------------------|
G|---------------------------------------------------------------------------|
D|-7-7--7--7--7-7------------------------------------------------------------|
A|-7-7--7--7--7-7------------------------------------------------------------|
D|-7-7--7--7--7-7------------------------------------------------------------|



e|---------------------------------------------------------------------------|
B|---------------------------------------------------------------------------|
G|---------------------------------------------------------------------------|
D|-5-5-5-5-5-5-5-5-7-7-7-7-7-7-7-7-9-9-9-9-9-9-9-9-7-7-7-7-7-7-7-7-----------|
A|-5-5-5-5-5-5-5-5-7-7-7-7-7-7-7-7-9-9-9-9-9-9-9-9-7-7-7-7-7-7-7-7-----------|
D|-5-5-5-5-5-5-5-5-7-7-7-7-7-7-7-7-9-9-9-9-9-9-9-9-7-7-7-7-7-7-7-7-----------|

e|---------------------------------------------------------------------------|
B|---------------------------------------------------------------------------|
G|---------------------------------------------------------------------------|
D|-5~--------------7~--------------9~--------------7~------------------------|
A|-5~--------------7~--------------9~--------------7~------------------------|
D|-5~--------------7~--------------9~--------------7~------------------------|


Verse 2

e|---------------------------------------------------------------------------|
B|---------------------------------------------------------------------------|
G|---------------------------------------------------------------------------|
D|-7-7-7-5-5-5-4-4-4---------------7-7-7-5-5-5-4-4-4-------------------------|
A|-------------------5-5-5-5-5-5-5-------------------5-5-5-5-5-5-5-----------|
D|---------------------------------------------------------------------------|
 ~~~~~~~~~~~~~~~~~~~~~~~~~~~~~~~p.m.~~~~~~~~~~~~~~~~~~~~~~~~~~~~~~~

e|---------------------------------------------------------------------------|
B|---------------------------------------------------------------------------|
G|---------------------------------------------------------------------------|
D|-5-5--5-5--5-5--5-5--5-5-5--5-5--5-5--5-5--5-5--5-5-5----------------------|
A|-5-5--5-5--5-5--5-5--5-5-5--5-5--5-5--5-5--5-5--5-5-5----------------------|
D|-5-5--5-5--5-5--5-5--5-5-5--5-5--5-5--5-5--5-5--5-5-5----------------------|
~~~~~~~~~~~~~~~~~~~~~~~~~~~~~~~p.m.~~~~~~~~~~~~~~~~~~~~~~~~~~~~~~~


e|---------------------------------------------------------------------------|
B|---------------------------------------------------------------------------|
G|---------------------------------------------------------------------------|
D|-7-7-7-5-5-5-4-4-4---------------7-7-7-5-5-5-4-4-4-------------------------|
A|-------------------5-5-5-5-5-5-5-------------------5-5-5-5-5-5-5-----------|
D|---------------------------------------------------------------------------|
 ~~~~~~~~~~~~~~~~~~~~~~~~~~~~~~~p.m.~~~~~~~~~~~~~~~~~~~~~~~~~~~~~~~

e|---------------------------------------------------------------------------|
B|---------------------------------------------------------------------------|
G|---------------------------------------------------------------------------|
D|-9-9--9-9--9-9--9-9--9-9-9--9-9--9-9--9-9--9-9--9-9-9----------------------|
A|-9-9--9-9--9-9--9-9--9-9-9--9-9--9-9--9-9--9-9--9-9-9----------------------|
D|-9-9--9-9--9-9--9-9--9-9-9--9-9--9-9--9-9--9-9--9-9-9----------------------|
~~~~~~~~~~~~~~~~~~~~~~~~~~~~~~~p.m.~~~~~~~~~~~~~~~~~~~~~~~~~~~~~~~


e|---------------------------------------------------------------------------|
B|---------------------------------------------------------------------------|
G|---------------------------------------------------------------------------|
D|-7-7-7-5-5-5-4-4-4---------------7-7-7-5-5-5-4-4-4-------------------------|
A|-------------------5-5-5-5-5-5-5-------------------5-5-5-5-5-5-5-----------|
D|---------------------------------------------------------------------------|
 ~~~~~~~~~~~~~~~~~~~~~~~~~~~~~~~p.m.~~~~~~~~~~~~~~~~~~~~~~~~~~~~~~~

e|---------------------------------------------------------------------------|
B|---------------------------------------------------------------------------|
G|---------------------------------------------------------------------------|
D|-5-5--5-5--5~--------------------5-5--5-5--5~------------------------------|
A|-5-5--5-5--5~--------------------5-5--5-5--5~------------------------------|
D|-5-5--5-5--5~--------------------5-5--5-5--5~------------------------------|
 ~~~p.m.~~~                      ~~~p.m.~~~


e|---------------------------------------------------------------------------|
B|---------------------------------------------------------------------------|
G|---------------------------------------------------------------------------|
D|-7-7-7-5-5-5-4-4-4---------------7-7-7-5-5-5-4-4-4-------------------------|
A|-------------------5-5-5-5-5-5-5-------------------5-5-5-5-5-5-5-----------|
D|---------------------------------------------------------------------------|
 ~~~~~~~~~~~~~~~~~~~~~~~~~~~~~~~p.m.~~~~~~~~~~~~~~~~~~~~~~~~~~~~~~~

e|---------------------------------------------------------------------------|
B|---------------------------------------------------------------------------|
G|---------------------------------------------------------------------------|
D|-9-9--9-9--9~--------------------9-9--9-9--9~------------------------------|
A|-9-9--9-9--9~--------------------9-9--9-9--9~------------------------------|
D|-9-9--9-9--9~--------------------9-9--9-9--9~------------------------------|
 ~~~p.m.~~~                      ~~~p.m.~~~


e|---------------------------------------------------------------------------|
B|---------------------------------------------------------------------------|
G|---------------------------------------------------------------------------|
D|---------------------------------------------------------------------------|
A|---------------------------------------------------------------------------|
D|---------------------------------------------------------------------------|

e|---------------------------------------------------------------------------|
B|---------------------------------------------------------------------------|
G|---------------------------------------------------------------------------|
D|-7~------------------------------------------------------------------------|
A|-7~------------------------------------------------------------------------|
D|-7~------------------------------------------------------------------------|


Chorus

e|---------------------------------------------------------------------------|
B|---------------------------------------------------------------------------|
G|---------------------------------------------------------------------------|
D|-0~--------------------7~--------------------9~--------------------7~------|
A|-0~--------------------7~--------------------9~--------------------7~------|
D|-0~--------------------7~--------------------9~--------------------7~------|

e|---------------------------------------------------------------------------|
B|---------------------------------------------------------------------------|
G|---------------------------------------------------------------------------|
D|-0--0--0-0--0--0--0-0--7--7--7-7--7--7--7-7--9--9--9-9--9--9--9-9--7--7----|
A|-0--0--0-0--0--0--0-0--7--7--7-7--7--7--7-7--9--9--9-9--9--9--9-9--7--7----|
D|-0--0--0-0--0--0--0-0--7--7--7-7--7--7--7-7--9--9--9-9--9--9--9-9--7--7----|



e|---------------------------------------------------------------------------|
B|---------------------------------------------------------------------------|
G|---------------------------------------------------------------------------|
D|---------------------------------------------------------------------------|
A|---------------------------------------------------------------------------|
D|---------------------------------------------------------------------------|

e|---------------------------------------------------------------------------|
B|---------------------------------------------------------------------------|
G|---------------------------------------------------------------------------|
D|-7-7--7--7--7-7------------------------------------------------------------|
A|-7-7--7--7--7-7------------------------------------------------------------|
D|-7-7--7--7--7-7------------------------------------------------------------|



e|---------------------------------------------------------------------------|
B|---------------------------------------------------------------------------|
G|---------------------------------------------------------------------------|
D|-5--5--5--5--5--5--5--5--7--7--7--7--7--7--7--7--9--9--9--9--9--9--9--9----|
A|-5--5--5--5--5--5--5--5--7--7--7--7--7--7--7--7--9--9--9--9--9--9--9--9----|
D|-5--5--5--5--5--5--5--5--7--7--7--7--7--7--7--7--9--9--9--9--9--9--9--9----|

e|---------------------------------------------------------------------------|
B|---------------------------------------------------------------------------|
G|---------------------------------------------------------------------------|
D|-5~----------------------7~----------------------9~------------------------|
A|-5~----------------------7~----------------------9~------------------------|
D|-5~----------------------7~----------------------9~------------------------|



e|---------------------------------------------------------------------------|
B|---------------------------------------------------------------------------|
G|---------------------------------------------------------------------------|
D|-7--7--7--7--7--7--7--7----------------------------------------------------|
A|-7--7--7--7--7--7--7--7----------------------------------------------------|
D|-7--7--7--7--7--7--7--7----------------------------------------------------|

e|---------------------------------------------------------------------------|
B|---------------------------------------------------------------------------|
G|---------------------------------------------------------------------------|
D|-7~------------------------------------------------------------------------|
A|-7~------------------------------------------------------------------------|
D|-7~------------------------------------------------------------------------|


Breakdown

e|---------------------------------------------------------------------------|
B|---------------------------------------------------------------------------|
G|---------------------------------------------------------------------------|
D|---------------------------------------------------------------------------|
A|---------------------------------------------------------------------------|
D|---------------------------------------------------------------------------|

e|---------------------------------------------------------------------------|
B|---------------------------------------------------------------------------|
G|---------------------------------------------------------------------------|
D|-5~--5-5-5-5-5-5-5-5-5-5-5-5-5-5-------------------------------------------|
A|-5~--5-5-5-5-5-5-5-5-5-5-5-5-5-5-------------------------------------------|
D|-5~--5-5-5-5-5-5-5-5-5-5-5-5-5-5-------------------------------------------|
       ~~~~~~~~~~~~p.m.~~~~~~~~~~~~


e|---------------------------------------------------------------------------|
B|---------------------------------------------------------------------------|
G|---------------------------------------------------------------------------|
D|--------------------------------------4-5-7-5-4--------5-/7-5--------------|
A|-----4-5-7-5-4--------5-/7-5------5-7-----------7--5-7--------7-5----------|
D|-5-7-----------7--5-7--------7-5-------------------------------------------|

e|---------------------------------------------------------------------------|
B|---------------------------------------------------------------------------|
G|---------------------------------------------------------------------------|
D|-2-2--2-2-2-2-2-2-2-2---5-5--5-5-5-5-5-5-5-5-------------------------------|
A|-2-2--2-2-2-2-2-2-2-2---5-5--5-5-5-5-5-5-5-5-------------------------------|
D|-2-2--2-2-2-2-2-2-2-2---5-5--5-5-5-5-5-5-5-5-------------------------------|



e|---------------------------------------------------------------------------|
B|---------------------------------------------------------------------------|
G|---------------------------------------------------------------------------|
D|-------------7-7-5-5-5-4-4-4------------------7-7-5-5-5-4-4-4--------------|
A|---------5-5-----------------7-7----------5-5-----------------7-7----------|
D|-5-5-7-7--------------------------5-5-7-7----------------------------------|

e|---------------------------------------------------------------------------|
B|---------------------------------------------------------------------------|
G|---------------------------------------------------------------------------|
D|-9-9--9-9-9-9-9-9-9-9---7-7--7-7-7-7-7-7-7-7-------------------------------|
A|-9-9--9-9-9-9-9-9-9-9---7-7--7-7-7-7-7-7-7-7-------------------------------|
D|-9-9--9-9-9-9-9-9-9-9---7-7--7-7-7-7-7-7-7-7-------------------------------|



e|---------------------------------------------------------------------------|
B|---------------------------------------------------------------------------|
G|---------------------------------------------------------------------------|
D|--------------------------------------4-5-7-5-4--------5-/7-5--------------|
A|-----4-5-7-5-4--------5-/7-5------5-7-----------7--5-7--------7-5----------|
D|-5-7-----------7--5-7--------7-5-------------------------------------------|

e|---------------------------------------------------------------------------|
B|---------------------------------------------------------------------------|
G|---------------------------------------------------------------------------|
D|-2-2--2-2-2-2-2-2-2-2---5-5--5-5-5-5-5-5-5-5-------------------------------|
A|-2-2--2-2-2-2-2-2-2-2---5-5--5-5-5-5-5-5-5-5-------------------------------|
D|-2-2--2-2-2-2-2-2-2-2---5-5--5-5-5-5-5-5-5-5-------------------------------|



e|---------------------------------------------------------------------------|
B|---------------------------------------------------------------------------|
G|---------------------------------------------------------------------------|
D|-------------7-7-5-5-5-4-4-4------------------7-7-5-5-5-4-4-4--------------|
A|---------5-5-----------------7-7----------5-5-----------------7-7----------|
D|-5-5-7-7--------------------------5-5-7-7----------------------------------|

e|---------------------------------------------------------------------------|
B|---------------------------------------------------------------------------|
G|---------------------------------------------------------------------------|
D|-9-9--9-9-9-9-9-9-9-9---7-7--7-7-7-7-7-7-7-7-------------------------------|
A|-9-9--9-9-9-9-9-9-9-9---7-7--7-7-7-7-7-7-7-7-------------------------------|
D|-9-9--9-9-9-9-9-9-9-9---7-7--7-7-7-7-7-7-7-7-------------------------------|



e|---------------------------------------------------------------------------|
B|---------------------------------------------------------------------------|
G|-------------9---------------9---------------9---------------9-------------|
D|-7---7---7-------7---7---7-------7---7---7-------7---7---7-----------------|
A|---5---5---5---5---5---5---5---5---5---5---5---5---5---5---5---5-----------|
D|---------------------------------------------------------------------------|

e|---------------------------------------------------------------------------|
B|---------------------------------------------------------------------------|
G|---------------------------------------------------------------------------|
D|-5~--------------7~--------------9~--------------7~------------------------|
A|-5~--------------7~--------------9~--------------7~------------------------|
D|-5~--------------7~--------------9~--------------7~------------------------|


Chorus

e|---------------------------------------------------------------------------|
B|---------------------------------------------------------------------------|
G|---------------------------------------------------------------------------|
D|-0~--------------------7~--------------------9~--------------------7~------|
A|-0~--------------------7~--------------------9~--------------------7~------|
D|-0~--------------------7~--------------------9~--------------------7~------|

e|---------------------------------------------------------------------------|
B|---------------------------------------------------------------------------|
G|---------------------------------------------------------------------------|
D|-0--0--0-0--0--0--0-0--7--7--7-7--7--7--7-7--9--9--9-9--9--9--9-9--7--7----|
A|-0--0--0-0--0--0--0-0--7--7--7-7--7--7--7-7--9--9--9-9--9--9--9-9--7--7----|
D|-0--0--0-0--0--0--0-0--7--7--7-7--7--7--7-7--9--9--9-9--9--9--9-9--7--7----|



e|---------------------------------------------------------------------------|
B|---------------------------------------------------------------------------|
G|---------------------------------------------------------------------------|
D|---------------------------------------------------------------------------|
A|---------------------------------------------------------------------------|
D|---------------------------------------------------------------------------|

e|---------------------------------------------------------------------------|
B|---------------------------------------------------------------------------|
G|---------------------------------------------------------------------------|
D|-7-7--7--7--7-7------------------------------------------------------------|
A|-7-7--7--7--7-7------------------------------------------------------------|
D|-7-7--7--7--7-7------------------------------------------------------------|



e|---------------------------------------------------------------------------|
B|---------------------------------------------------------------------------|
G|---------------------------------------------------------------------------|
D|-5~--------------------7~--------------------9~--------------------7~------|
A|-5~--------------------7~--------------------9~--------------------7~------|
D|-5~--------------------7~--------------------9~--------------------7~------|

e|---------------------------------------------------------------------------|
B|---------------------------------------------------------------------------|
G|---------------------------------------------------------------------------|
D|-5--5--5-5--5--5--5-5--7--7--7-7--7--7--7-7--9--9--9-9--9--9--9-9--7--7----|
A|-5--5--5-5--5--5--5-5--7--7--7-7--7--7--7-7--9--9--9-9--9--9--9-9--7--7----|
D|-5--5--5-5--5--5--5-5--7--7--7-7--7--7--7-7--9--9--9-9--9--9--9-9--7--7----|



e|---------------------------------------------------------------------------|
B|---------------------------------------------------------------------------|
G|---------------------------------------------------------------------------|
D|---------------------------------------------------------------------------|
A|---------------------------------------------------------------------------|
D|---------------------------------------------------------------------------|

e|---------------------------------------------------------------------------|
B|---------------------------------------------------------------------------|
G|---------------------------------------------------------------------------|
D|-7-7--7--7--7-7------------------------------------------------------------|
A|-7-7--7--7--7-7------------------------------------------------------------|
D|-7-7--7--7--7-7------------------------------------------------------------|



e|---------------------------------------------------------------------------|
B|---------------------------------------------------------------------------|
G|---------------------------------------------------------------------------|
D|-0~------------7~------------9~------------7~------------------------------|
A|-0~------------7~------------9~------------7~------------------------------|
D|-0~------------7~------------9~------------7~------------------------------|

e|---------------------------------------------------------------------------|
B|---------------------------------------------------------------------------|
G|---------------------------------------------------------------------------|
D|-0--0--0-0--0--7--7--7-7--7--9--9--9-9--9--7--7--7-7--7--------------------|
A|-0--0--0-0--0--7--7--7-7--7--9--9--9-9--9--7--7--7-7--7--------------------|
D|-0--0--0-0--0--7--7--7-7--7--9--9--9-9--9--7--7--7-7--7--------------------|



e|---------------------------------------------------------------------------|
B|---------------------------------------------------------------------------|
G|---------------------------------------------------------------------------|
D|-0~----------------7~----------------9~----------------7~------------------|
A|-0~----------------7~----------------9~----------------7~------------------|
D|-0~----------------7~----------------9~----------------7~------------------|

e|---------------------------------------------------------------------------|
B|---------------------------------------------------------------------------|
G|---------------------------------------------------------------------------|
D|-0-0--0-0-0-0-0-0--7-7--7-7-7-7-7-7--9-9--9-9-9-9-9-9--7-7--7-7-7-7-7-7----|
A|-0-0--0-0-0-0-0-0--7-7--7-7-7-7-7-7--9-9--9-9-9-9-9-9--7-7--7-7-7-7-7-7----|
D|-0-0--0-0-0-0-0-0--7-7--7-7-7-7-7-7--9-9--9-9-9-9-9-9--7-7--7-7-7-7-7-7----|



e|---------------------------------------------------------------------------|
B|---------------------------------------------------------------------------|
G|---------------------------------------------------------------------------|
D|-5~------------------------------------------------------------------------|
A|-5~------------------------------------------------------------------------|
D|-5~------------------------------------------------------------------------|

e|---------------------------------------------------------------------------|
B|---------------------------------------------------------------------------|
G|---------------------------------------------------------------------------|
D|-5~------------------------------------------------------------------------|
A|-5~------------------------------------------------------------------------|
D|-5~------------------------------------------------------------------------|

Tap to rate this tab
# A B C D E F G H I J K L M N O P Q R S T U V W X Y Z