Song name
# A B C D E F G H I J K L M N O P Q R S T U V W X Y Z

Sparks The Rescue - I Swear That Shes The One tab

Standard Tuning

Intro Chord (x16)
e-----------------------------------------------------|
b-----------------------------------------------------|
g----5------------------------------------------------|
d----x------------------------------------------------|
a----7------------------------------------------------|
e-----------------------------------------------------|

Verse (It started out when I met this girl)
e-----------------------------------------------------|
b-----------------------------------------------------|
g----5-5-5-5-5-5-5-5----------------------------------|
d----X-X-X-X-X-X-X-X-5-5-5-5-7-7-7-7------------------|
a----7-7-7-7-8-8-8-8-5-5-5-5-7-7-7-7------------------|
e--------------------3-3-3-3-5-5-5-5------------------|

e-----------------------------------------------------|
b-----------------------------------------------------|
g----5-5-5-5-5-5-5-5---------5-5-5-5------------------|
d----X-X-X-X-X-X-X-X-5-5-5-5-5-5-5-5------------------|
a----7-7-7-7-8-8-8-8-5-5-5-5-3-3-3-3------------------|
e--------------------3-3-3-3--------------------------|

e-----------------------------------------------------|
b-----------------------------------------------------|
g----5-5-5-5-5-5-5-5----------------------------------|
d----X-X-X-X-X-X-X-X-5-5-5-5-7-7-7-7------------------|
a----7-7-7-7-8-8-8-8-5-5-5-5-7-7-7-7------------------|
e--------------------3-3-3-3-5-5-5-5------------------|

e-----------------------------------------------------|
b-----------------------------------------------------|
g----7-7-7-7-7-7-7-7----------------------------------|
d----7-7-7-7-7-7-7-7-5-5-5-5-5-5-5-5-5-5-5-5-5-5-5-5--|
a----5-5-5-5-5-5-5-5-5-5-5-5-5-5-5-5-5-5-5-5-5-5-5-5--|
e--------------------3-3-3-3-3-3-3-3-3-3-3-3-3-3-3-3--|


Pre-Chorus Chords:
               F                         C
She's got blue eyes and a smile like the sun
             Am                 G
And then she cries "I think I'm done"


Chorus Chords:
           F                          Am   G
But then I swear that she's the one
  F                          Am   G
I swear that she's the one
  F                          Am   G
I swear that she's the one
  F                    G (hold)
I swear that she's the one I'm falling for


Verse 2 (Same chords)

Chorus 2 (Same chords)


Bridge Chords:
Dm           Em            C
Where your feet meet your legs
            F                Dm
Where your heart meets your head
            Em               F        G
There is a sound that echos out supersonically

Dm      Em                  C
Do you think that we're all doomed the children
F                
Of the oil bloom
Dm          Em             F              G
Change the subject, put a flower in your hair
G                           G (hold)
The world, it spins, but we go nowhere


Prechorus and chorus repeat
Tap to rate this tab
 
# A B C D E F G H I J K L M N O P Q R S T U V W X Y Z