Song name
# A B C D E F G H I J K L M N O P Q R S T U V W X Y Z

Sparks The Rescue - Autumn tab

-------------------------------------------------------------------------------
			     "Autumn" by Sparks The Rescue
-------------------------------------------------------------------------------
Tabbed by:Me
Email:sensesarise@aol.com

Tuning:Standard (EADGBe)

Really easy song, I figured it out in probably ten minutes lol. The part in the verse
sound weird because they harmonize it. Figure out the rhythm for yourself. If you honestly
do that, then stop playing guitar. Check out my guitar cover of it here: 
http://www.youtube.com/watch?v=7xkJhQTleT4


Intro Part One
e|---------------------------------------------------------------------------|
B|----------------------------------------------------------------777555-----|
G|-------------6667777-----------6667777---------6667777----777---------77---|
D|-------777---------------777-------------777-----------555---555-----------|
A|----555---555---------444---444--------------------------------------------|
E|--------------------------------------777---777----------------------------|
PM    *********         *********       *********

Intro Part Two
e|---------------------------------------------------------------------------|
B|----------------------------------------------------------------777555-----|
G|-------------6667777-----------6667777---------6667777----777---------77---|
D|-------777---------------777-------------777-----------555---555-----------|
A|----555---555---------444---444--------------------------------------------|
E|--------------------------------------777---777----------------------------|

Verse
e|----------------------------------------------------------------------------------------|
B|----------------------------------------------------------------------------------------|
G|-----------------------7777-777-777-77--------------------------------------------------|
D|-----------------------7777-777-777-77-7777-777-777-77-9999-999-999-99-5555-555-555-55--|
A|--5~-4~-2~-0-2~-4~-5~--5555-555-555-55-7777-777-777-77-9999-999-999-99-5555-555-555-55--|
E|---------------------------------------5555-555-555-55-7777-777-777-77-3333-333-333-33--|
PM                       **** *** *** *  **** *** *** *  **** *** *** *  **** *** *** *

End of Verse + Chorus
e|--------------------------------------------------------------------------------|
B|---------------------------------777555-----------------------------------------|
G|---7-6-666666----7---------777---------55--7------------------------------------|
D|---x-x-xxxxxx----7-7-9--555---555----------7-7-9-5----754-----------------------|
A|---5-4-444444----5-7-9---------------------5-7-9-5-------75~-4~-2~-0-2~-4~-5~---|
E|-------------------5-7-----------------------5-7-3------------------------------|

Repeat Verse then this:

e|---------------------------------------------------------------------------|
B|----/7-5----------/5-------------------------------------------------------|
G|--------7-6-6h7p6---7-6-666666---------------------------------------------|
D|---------------------------------------------------------------------------|
A|---------------------------------------------------------------------------|
E|---------------------------------------------------------------------------|

Repeat Chorus

Bridge
e|---------------------------------------------------------------------------------------|
B|---------------------------------------------------------------------------------------|
G|--7/9/11------7/9/11/-14-14/-7/9/11---7/9/11/14---7----------77777777------------------|
D|--x/x/-x------x/x/-x/--x--x/-x/x/x----x/x/x-/-x---7-7-9-5----xxxxxxxx------------------|
A|--5/7/-9------5/7/-9/-12-12/-5/7/9----5/7/9-/12---5-7-9-5--5-55555555------------------|
E|----------------------------------------------------5-7-3------------------------------|
PM                                                  * * * *

Repeat Chrous once then play the second part of the intro again then:
                       (Play this until it fades)
e|---------------------|-------------------|------------------------------------|
B|---------------------|-------------------|------------------------------------|
G|-----------------7~--|-----------6667777-|------------------------------------|
D|----------5~-55--7~--|-----777-----------|------------------------------------|
A|----------5~-55--5~--|--555---555--------|------------------------------------|
E|----------3~-33------|-------------------|------------------------------------|
PM             **

This is really easy and fun to play and its a really great song. I just wasted at least
hour of my time doing this even though I shouldnt have had to do this. So suck my dick
Tap to rate this tab
 
# A B C D E F G H I J K L M N O P Q R S T U V W X Y Z