Song name
# A B C D E F G H I J K L M N O P Q R S T U V W X Y Z

Sparks The Rescue - Hello Mexico tab

				Hello Mexico
B |F# | G# | E (Chorus + Verse)
G# | E | B | F# ( bridge + breakdown)


E||--------------------------------------------------------------|
B||--------------------------------------------------------------|
G||--7/11--9-----13-----7/11--9------13---------11---------------|
D||-----------13-----9-----------13------9--13------13--11---9---|
A||--------------------------------------------------------------|
E||---------------------------------------------------------|x 2-|

E||---------------------------------------------------------|
B||---------------------------------------------------------|
G||----11---8----11---8---11/13--8--------------------------|
D||---------------------------------11---9------------------|
A||---------------------------------------------------------|
E||---------------------------------------------------------|


Or capo 4th fret G | D | Em | C
		  Em | C | G | D
Tap to rate this tab
 
# A B C D E F G H I J K L M N O P Q R S T U V W X Y Z