Song name
# A B C D E F G H I J K L M N O P Q R S T U V W X Y Z

Sparks The Rescue - American Blues tab

Artist: Sparks The Rescue
Song: American Blues
Album: Eyes to The Sun

Tabbed by Mitchell W.


     S S S S S S S S S S S S S S S S    S S S S S S S S S S S S S S S S  
E||----------------------------------|----------------------------------|
B||----------------------------------|----------------------------------|
G||------7-6-9-6---9-6---7-6-9-6---9-|--6---7-6-9-6---9-6---7-6-9-6---9-|
D||--0-----------0-----0-------------|------------------------------0---|
A||------------------------------7---|----7---------9-----9-------------|
E||----------------------------------|----------------------------------|


  S S S S S S S S S S S S S S S S    S S S S S S S S S S S S S S E         
 |---------------------------------|---------------------------------|-----|
 |---------------------------------|---------------------------------|-----|
 |-6---7-6-9-6---9-6---7-6-9-6---9-|--6---7-6-9-6---9-6---7-6-9-6----|-----|
 |---0---------0-----0-------------|---------------------------------|-----|
 |-----------------------------7---|----7---------9-----9------------|-----|
 |---------------------------------|---------------------------------|-----|
Tap to rate this tab
# A B C D E F G H I J K L M N O P Q R S T U V W X Y Z