Song name
# A B C D E F G H I J K L M N O P Q R S T U V W X Y Z

Sparks The Rescue - Autumn tab

// Hi. This is my first tab ever, but I know this is an accurate depiction of
// the acoustic version of Sparks The Rescue - Autumn. Please refer to the 
// following video of Sparks the Rescue playing this live, with these exact 
// chords (the intro i took from another tab site). 
// http://www.youtube.com/watch?v=DW7zCJQQTUU

Intro Part One
e|---------------------------------------------------------------------------|
B|----------------------------------------------------------------777555-----|
G|-------------6667777-----------6667777---------6667777----777---------77---|
D|-------777---------------777-------------777-----------555---555-----------|
A|----555---555---------444---444--------------------------------------------|
E|--------------------------------------777---777----------------------------|
PM    *********         *********       *********

Intro Part Two
e|---------------------------------------------------------------------------|
B|----------------------------------------------------------------777555-----|
G|-------------6667777-----------6667777---------6667777----777---------77---|
D|-------777---------------777-------------777-----------555---555-----------|
A|----555---555---------444---444--------------------------------------------|
E|--------------------------------------777---777----------------------------|

Verse: x2
Girl, you remind me of the summer time...
e|------------------------------------------------------------------------|
B|-------1111-111-111-11-1111-111-111-11-1111-111-111-11-1111-111-111-11--|
G|-------0000-000-000-00-0000-000-000-00-2222-222-222-22-2222-222-222-22--|
D|-------2222-222-222-22-0000-000-000-00-2222-222-222-22-3333-333-333-33--|
A|-------3333-333-333-33-2222-222-222-22-0000-000-000-00-3333-333-333-33--|
E|-----------------------3333-333-333-33-0000-000-000-00------------------|


End of Verse: x1
...I've been waiting all night...(then play this)
e|-----------------------1111-111-111-11--|
B|-------1111-111-111-11-0000-000-000-00--|
G|-------2222-222-222-22-0000-000-000-00--|
D|-------2222-222-222-22-0000-000-000-00--|
A|-------0000-000-000-00-2222-222-222-22--|
E|-------0000-000-000-00-0000-000-000-00-3333-333-333-33--|

Chorus: x2
Think back, think back, to the summer time...
e|------------------------------------------------------------------------|
B|-------1111-111-111-11-1111-111-111-11-1111-111-111-11-1111-111-111-11--|
G|-------0000-000-000-00-0000-000-000-00-2222-222-222-22-2222-222-222-22--|
D|-------2222-222-222-22-0000-000-000-00-2222-222-222-22-3333-333-333-33--|
A|-------3333-333-333-33-2222-222-222-22-0000-000-000-00-3333-333-333-33--|
E|-----------------------3333-333-333-33-0000-000-000-00------------------|

Repeat Verse: x2
I, I will follow these electric lines...

Repeat Chorus: x2
Think back, think back, to the summer time...

Bridge: x2
We spin, we spin, and fall on to the floor...
e|-------------------------------------------------------1111-111-111-11--|
B|-------1111-111-111-11-0000-000-000-00-1111-111-111-11-0000-000-000-00--|
G|-------2222-222-222-22-0000-000-000-00-2222-222-222-22-0000-000-000-00--|
D|-------2222-222-222-22-2222-222-222-22-3333-333-333-33-0000-000-000-00--|
A|-------0000-000-000-00-2222-222-222-22-0000-000-000-00-2222-222-222-22--|
E|-------0000-000-000-00-0000-000-000-00-0000-000-000-00-3333-333-333-33--|

Slow version of chorus: x1
Think back, think back, to the summer time...
e|------------------------------------------------------------------------|
B|-------1---------------1---------------1---------------1111-111-111-11--|
G|-------0---------------0---------------2---------------2222-222-222-22--|
D|-------2---------------0---------------2---------------3333-333-333-33--|
A|-------3---------------2---------------0---------------3333-333-333-33--|
E|-----------------------3---------------0--------------------------------|

Normal chorus: x1
It should not be, this hard to see...
e|------------------------------------------------------------------------|
B|-------1111-111-111-11-1111-111-111-11-1111-111-111-11-1111-111-111-11--|
G|-------0000-000-000-00-0000-000-000-00-2222-222-222-22-2222-222-222-22--|
D|-------2222-222-222-22-0000-000-000-00-2222-222-222-22-3333-333-333-33--|
A|-------3333-333-333-33-2222-222-222-22-0000-000-000-00-3333-333-333-33--|
E|-----------------------3333-333-333-33-0000-000-000-00------------------|

Chorus: x2
Think back, think back, to the summer time...
e|------------------------------------------------------------------------|
B|-------1111-111-111-11-1111-111-111-11-1111-111-111-11-1111-111-111-11--|
G|-------0000-000-000-00-0000-000-000-00-2222-222-222-22-2222-222-222-22--|
D|-------2222-222-222-22-0000-000-000-00-2222-222-222-22-3333-333-333-33--|
A|-------3333-333-333-33-2222-222-222-22-0000-000-000-00-3333-333-333-33--|
E|-----------------------3333-333-333-33-0000-000-000-00------------------|

Ending note:
e|----------------------------------------|
B|-----------------------1111-111-111-11--|
G|-----------------------0000-000-000-00--|
D|-----------------------2222-222-222-22--|
A|-----------------------3333-333-333-33--|
E|-----------------------0000-000-000-00--|

Enjoy, and impress your friends with the actual chords :-D. 
Tap to rate this tab
# A B C D E F G H I J K L M N O P Q R S T U V W X Y Z