Song name
# A B C D E F G H I J K L M N O P Q R S T U V W X Y Z

Sparks The Rescue - My Heart Radio tab

My Heart Radio - Sparks The Rescue
Submitted By: Kino94
I don't think it's perfect but it sounds great! I hope you enjoy it.

Intro:
e-------------------------------------------------------------|
B-------------------------------------------------------------|
G--------------2-2-2-2----------------------2-2-2-2-----------|
D--2-0-2-2-1---2-2-2-2-4-6-4-2---2----2-1---2-2-2-2-4h6-4-2---|
A--2---------2-0-0-0-0-----------2--------2-0-0-0-0-------2---|
E--0-----------------------------0------------------------0---|
P.M  ...

e-------------------------------------------------------------|
B-------------------------------------------------------------|
G--------------2-2-2-2----------------------2-2-2-2-----------|
D--2-0-2-2-1---2-2-2-2-4-6-4-2---2----2-1---2-2-2-2-4h6-4-----|
A--2---------2-0-0-0-0-----------2--------2-0-0-0-0-----------|
E--0-----------------------------0----------------------------|
P.M  ...

Verse:
e--------------------------------------------------------|
B--------------------------------------------------------|
G--------------------------------------------------------|
D---2222-444-77777777----2-2---4-4444444-777777777777-999|
A---2222-444-77777777-x2-2-2---4-4444444-777777777777-999|
E---0000-222-55555555----0-0---2-2222222-555555555555-777|
P.M .... ... ........

Intro 2:
e-------------------------------------------------------------------------|
B--------------------------------------------------------------10----10-12|
G-----------2-2-2-2-4-4-4-4-----4-4-4-4-4-4-4-4-4-4-4-4-4-4-4----9--------|
D-2---2-1---2-2-2-2-4-4-4-4-x2--4-4-4-4-4-4-4-4-4-4-4-4-4-4-4------11-----|
A-2-------2-0-0-0-0-2-2-2-2-----2-2-2-2-2-2-2-2-2-2-2-2-2-2-2-------------|
E-0-----------------------------------------------------------------------|
P.M                             . . . . . . . . . . . . . . . 

Verse 2:
e-----------------------------------------------------|
B-----------------------------------------------------|
G-----------------------------------------------------|
D---22-44-7777-------2-2-----44444444-777777777777-999|
A---22-44-7777--x2---2-2-----44444444-777777777777-999|
E---00-22-5555-------0-0-----22222222-555555555555-777|
P.M 

Intro 2:
e---------------------------------------------------------------------------|
B---------------------------------------------------------------10-----10-12|
G-------------2-2-2-2-4-4-4-4-----4-4-4-4-4-4-4-4-4-4-4-4-4-4-4----9--------|
D--2----2-1---2-2-2-2-4-4-4-4-x2--4-4-4-4-4-4-4-4-4-4-4-4-4-4-4------11-----|
A--2--------2-0-0-0-0-2-2-2-2-----2-2-2-2-2-2-2-2-2-2-2-2-2-2-2-------------|
E--0------------------------------------------------------------------------|
P.M                               . . . . . . . . . . . . . . .

Chorus:
e---------------------------------------------------------------------------|
B---------------------------------------------------------------------------|
G--6-66-666-2-22-222----------4-44-444-----2222222222222222-444444444444444-|
D--6-66-666-2-22-222-2-22-222-4-44-444-X2--2222222222222222-444444444444444-|
A--4-44-444-0-00-000-2-22-222-2-22-222-----0000000000000000-222222222222222-|
E--------------------0-00-000-----------------------------------------------|
P.M

Verse 3:
e------------------------------------------------------------|
B------------------------------------------------------------|
G------------------------------------------------------------|
D--2-2----2-2----2-2--2-1------444444444444444-77777777-99999|
A--2-2----2-2----2-2------2-0--444444444444444-77777777-99999|
E--0-0----0-0----0-0-----------222222222222222-55555555-77777|
P.M                            ............... ........ ..        

Chorus 2:
e---------------------------------------------------------------------------|
B---------------------------------------------------------------------------|
G--6-66-666-2-22-222----------4-44-444-----2222222222222222-444444444444444-|
D--6-66-666-2-22-222-2-22-222-4-44-444-X2--2222222222222222-444444444444444-|
A--4-44-444-0-00-000-2-22-222-2-22-222-----0000000000000000-222222222222222-|
E--------------------0-00-000-----------------------------------------------|
P.M                      

Intro:
e-------------------------------------------------------------|
B-------------------------------------------------------------|
G--------------2-2-2-2----------------------2-2-2-2-----------|
D--2-0-2-2-1---2-2-2-2-4-6-4-2---2----2-1---2-2-2-2-4h6-4-2---|
A--2---------2-0-0-0-0-----------2--------2-0-0-0-0-------2---|
E--0-----------------------------0------------------------0---|
P.M  ...

e-------------------------------------------------------------|
B-------------------------------------------------------------|
G--------------2-2-2-2----------------------2-2-2-2-----------|
D--2-0-2-2-1---2-2-2-2-4-6-4-2---2----2-1---2-2-2-2-4h6-4-----|
A--2---------2-0-0-0-0-----------2--------2-0-0-0-0-----------|
E--0-----------------------------0----------------------------|
P.M  ...
Tap to rate this tab
 
# A B C D E F G H I J K L M N O P Q R S T U V W X Y Z