Sparks The Rescue - Autumn tab

Sparks the Rescue - Autumn
Tabbed by : Khalamity
Standard Tuning

Format :

Intro
Verse + Pre Chorus 1
Chorus + Pre Verse
Verse + Pre Chorus 2
Chorus
Bridge
Outro Chorus 1
Outro Chorus 2
Fade-off

~~~~~~~~Intro :~~~~~~~~

Lead
e|----------------------------------------------------------------------|
B|------------------------------------------------------------777555----|
G|-----------666777-----------666777---------666777-----777---------77--|
D|-----777---------------777-------------777---------555---555----------|
A|--555---555---------444---444-----------------------------------------|
E|------------------------------------777---777-------------------------|
PM  *********         *********       *********

e|----------------------------------------------------------------------|
B|------------------------------------------------------------777555----|
G|-----------666777-----------666777---------666777-----777---------77--|
D|-----777---------------777-------------777---------555---555----------|
A|--555---555---------444---444-----------------------------------------|
E|------------------------------------777---777-------------------------|

Rhythm (Comes behind 2nd part of lead)
e|---------------------------------------|
B|---------------------------------------|
G|--77777777-----------------------------|
D|--77777777-77777777-99999999-55555555--|
A|--55555555-77777777-99999999-55555555--|
E|-----------55555555-77777777-33333333--|

~~~~~~~~Verse :~~~~~~~~

Both Guitars
e|-----------------------|
B|-----------------------|
G|-----------------------|
D|-----------------------|
A|-----------------------|
E|--5~-7~--9-7-5~--7-5~--|

e|----------------------------------------------------------------------|
B|----------------------------------------------------------------------|
G|--7777-777-777-77-----------------------------------------------------|
D|--7777-777-777-77--7777-777-777-77--9999-999-999-99--5555-555-555-55--|
A|--5555-555-555-55--7777-777-777-77--9999-999-999-99--5555-555-555-55--|
E|-------------------5555-555-555-55--7777-777-777-77--3333-333-333-33--|
PM  **** *** *** *   **** *** *** *   **** *** *** *   **** *** *** 

~~~~~~~~Pre-Chorus 1 :~~~~~~~~

Lead
e|---------|
B|---------|
G|--7~-6~--|
D|--x~-x~--|
A|--6~-4~--|
E|---------|

~~~~~~~~Chorus :~~~~~~~~

Lead
e|------------------------------------------------|
B|--------------------------------------777555----|
G|--77777777----------------------777---------77--|
D|--77777777-7777777-99999999--555---555----------|
A|--55555555-7777777-99999999---------------------|
E|-----------5555555-77777777---------------------|

e|---------------------------------------|
B|---------------------------------------|
G|--77777777-----------------------------|
D|--77777777-77777777-99999999-55555555--|
A|--55555555-77777777-99999999-55555555--|
E|-----------55555555-77777777-33333333--|

Rhythm
e|---------------------------------------|
B|---------------------------------------|
G|--77777777-----------------------------|
D|--77777777-77777777-99999999-55555555--| x2
A|--55555555-77777777-99999999-55555555--|
E|-----------55555555-77777777-33333333--|

~~~~~~~~Pre-verse :~~~~~~~~

Lead
e|--------|
B|--------|
G|--------|
D|--754---|
A|-----7--|
E|--------|

~~~~~~~~Pre Chorus 2 :~~~~~~~~

Lead
e|------------------------|
B|--/7-5-------/5---------|
G|------7-6-6b---7-6-666--|
D|------------------------|
A|------------------------|
E|------------------------|

~~~~~~~~Bridge :~~~~~~~~

Lead
e|-------------------------------|
B|-------------------------------|
G|--444444-666666-777777-999999--|
D|--xxxxxx-xxxxxx-xxxxxx-xxxxxx--|
A|--555555-444444-555555-777777--|
E|-------------------------------|

e|---------------------------------|
B|---------------------------------|
G|--444444-666666-777777-9999-9-9--|
D|--xxxxxx-xxxxxx-xxxxxx-xxxx-x-x--|
A|--555555-444444-555555-7777-7-7--|
E|---------------------------------|

e|-------------------------------|
B|-------------------------------|
G|--444444-666666-777777-999999--|
D|--xxxxxx-xxxxxx-xxxxxx-xxxxxx--|
A|--555555-444444-555555-777777--|
E|-------------------------------|

e|--------------------------------------------------------------|
B|--------------------------------------------------------------|
G|--444444-666666-777-999-111111-121212-141414141414-666666-7~--|
D|--xxxxxx-xxxxxx-xxx-xxx--x-x-x--x-x-x--x-x-x-x-x-x-xxxxxx-x~--|
A|--222222-444444-555-777--9-9-9-101010-111111111111-444444-6~--|
E|--------------------------------------------------------------|

Rhythm
e|-----------------------|
B|-----------------------|
G|-----------------------|
D|--9999-4444-5555-7777--|
A|--9999-4444-5555-7777--|
E|--7777-2222-3333-5555--|

e|--------------------------|
B|--------------------------|
G|--------------------------|
D|--9999-4444-5555-7777-7-7-|
A|--9999-4444-5555-7777-7-7-|
E|--7777-2222-3333-5555-5-5-|

e|-----------------------|
B|-----------------------|
G|-----------------------|
D|--9999-4444-5555-7777--|
A|--9999-4444-5555-7777--|
E|--7777-2222-3333-5555--|

e|-------------------------------|
B|-------------------------------|
G|-------------------------------|
D|--9999-4444-55555555-77777777--|
A|--9999-4444-55555555-77777777--|
E|--7777-2222-33333333-55555555--|

~~~~~~~~Outro Chorus 1 :~~~~~~~~

Lead (at the end of the bass-drum build-up with a sort of volume-swell effect)
e|------------|
B|------------|
G|--777777----|
D|--xxxxxx----|
A|--555555----|
E|------------|

Both (Strum only downwards in sync with drums)
e|---------------------------------------|
B|---------------------------------------|
G|--77777777-----------------------------|
D|--77777777-77777777-99999999-55555555--|
A|--55555555-77777777-99999999-55555555--|
E|-----------55555555-77777777-33333333--|

~~~~~~~-Outro Chorus 2 :~~~~~~~~

Lead
e|----------------------------------------------------------------------|
B|------------------------------------------------------------777555----|
G|-----------666777-----------666777---------666777-----777---------77--|
D|-----777---------------777-------------777---------555---555----------|
A|--555---555---------444---444-----------------------------------------|
E|------------------------------------777---777-------------------------|

e|---------------------------------------------------|
B|---------------------------------------------------|
G|-----------666777-----------666777---------666777--|
D|-----777---------------777-------------777---------|
A|--555---555---------444---444----------------------|
E|------------------------------------777---777------|

Rhythm
e|---------------------------------------|
B|---------------------------------------|
G|--77777777-----------------------------|
D|--77777777-77777777-99999999-55555555--|
A|--55555555-77777777-99999999-55555555--|
E|-----------55555555-77777777-33333333--|

e|---------------------------------|
B|---------------------------------|
G|--77777777-----------------------|
D|--77777777-77777777-99999999-5~--|
A|--55555555-77777777-99999999-5~--|
E|-----------55555555-77777777-3~--|

Both
e|--x-x------|
B|--x-x------|
G|--x-x--7~--|
D|--x-x--7~--|
A|--x-x--5~--|
E|--x-x------|

~~~~~~~~Fade-off :~~~~~~~~
e|-------------------|
B|-------------------|
G|-----------666777--|
D|-----777-----------|
A|--555---555--------|
E|-------------------|
Tap to rate this tab
 
# A B C D E F G H I J K L M N O P Q R S T U V W X Y Z