Song name
# A B C D E F G H I J K L M N O P Q R S T U V W X Y Z

Sparks The Rescue - Distance From Regret tab

Hi welcome to another Sparks the rescue tab this one is from Distance from regret.

First you play this 2x
Intro

e|-------------------------------------------------------------------------|
B|-------------------------------------------------------------------------|
G|---------5-----------------7-----------------9-----------------7---------|
D|---5---5---5---5-----7---7---7---7-----9---9---9---9-----7---7---7---7---|
A|-3---3-------3-----5---5-------5-----7---7-------7-----5---5-------5-----|
E|-------------------------------------------------------------------------|

Then you play this 1x

e|-------|
B|-------|
G|---5---|
D|---5---|
A|---3---|
E|-------|

Hold it for a while and then play this 2x
(The 0 before the 9 is for filling it up)

e|-------------------------------------------------------------------------|
B|-------------------------------------------------------------------------|
G|-5-5-5-5-5---7-7-7-7---9-9-9-9---12-12-12-11-14--------------------------|
D|-5-5-5-5-5---7-7-7-7---9-9-9-9---12-12-12-11-14--------------------------|
A|-3-3-3-3-3---5-5-5-5---7-7-7-7---10-10-10-09-12--------------------------|
E|-------------------------------------------------------------------------|

Then they start to sing and you play this for a while.
(You have to figure out the rythim by yourself)
Rythim 1

e|------------------|
B|------------------|
G|-5---7---9---9----|
D|-5---7---9---9----|
A|-3---5---7---7----|
E|------------------|

After they sing "I've been in a trance" you play this 4x
Rythim 2

e|-----------------------------|
B|-----------------------------|
G|-----------------------------|
D|-5-5---4-4---2---2-2-2-2-2---|
A|-5-5---4-4---2---2-2-2-2-2---|
E|-3-3---2-2---0---0-0-0-0-0---|

then just play Rythim 1 and 2 then again 1 and again 2 then play the intro again.

I hope you enjoyed it, good luck and more tabs coming soon
Tap to rate this tab
 
# A B C D E F G H I J K L M N O P Q R S T U V W X Y Z