Song name
# A B C D E F G H I J K L M N O P Q R S T U V W X Y Z

Sparks The Rescue - Chemistey Set tab

hi and welcome to the tab of Sparks the rescue-Chemistry set this is what I figured out already

Guitar 1 plays this string by string 2x:
Intro
     Dm     F       Bm        Am
e----1---------------------------|
B----3------------------------1--|
G----2---------------3--------2--|
D-----------3--------3--------2--|
A-----------3--------1--------0--|
E-----------1--------------------|
When it is the second time Guitar 1 plays this, Then Guitar 2 plays this in chords and 
hit each of them 1x

Then Guitar 2 plays a little solo that goes like this

e------------5--------------5---5-------------------------5----------------|
B--3---6-5-3---3-5-6-5-3--3---3---3--3-5-3-2-3-2----6-5-3---3-5-6-5-3--3-5-|
G--------------------------------------------------------------------------|
D--------------------------------------------------------------------------|
A--------------------------------------------------------------------------|
E--------------------------------------------------------------------------|

------------|
6-5-3-2--3--|
------------|
------------|
------------|
------------|

until here i figured it out but in the chorus they use the same chords as in the intro 
but the hit them multiple of times.

I got more soon
Enjoy :D
Tap to rate this tab
 
# A B C D E F G H I J K L M N O P Q R S T U V W X Y Z