Sparks The Rescue - Shes A Bitch And Im A Fool tab

----------------------------------------------------------------------------
          "Shes A Bitch, And Im A Fool" by Sparks The Rescue
----------------------------------------------------------------------------



Tuning: Standard


Verse 
     
E|--------------------------------------|
B|--------------------------------------|
G|---555--------------------------------|     x2
D|---555------777------555------333-----|
A|---333------777------555------333-----|
E|------------555------333------111-----|
  


Pre-Chorus
E|--------------------------------------------------11111111---11111111----|
B|--------------------------------------------------11111111---11111111----|
G|-------------------------5555--------2222---------22222222---11111111----|
D|-------------------------5555--5555--2222--5555---33333333---33333333----|
A|---33333333--55555555----3333--2222--0000--5555---33333333---33333333----|
E|---11111111--33333333----------------------3333---11111111---11111111----|
     ********  ********


Chorus

E|-----------------------------------------------------------|
B|-----------------------------------------------------------|
G|---5555------------------5555------------------------------|
D|---5555--5555--33333333--5555--5555--33333333--------------|
A|---3333--5555--33333333--3333--5555--33333333--------------|
E|---------3333--11111111--------3333--11111111--------------|

E|-----------------------------------------------------------|
B|-----------------------------------------------------------|
G|-----------------------------------------------------------|
D|---7777--5555--33333333--7777--3333--5555--77--33----------|
A|---7777--5555--33333333--7777--3333--5555--77--33----------|
E|---5555--3333--11111111--5555--1111--3333--55--11----------|


First Solo

E|-----------------------------------------------------------|
B|--------------------------------8---------10-10-8----------|
G|---555---7-7-5----------9-7-9-7----------------------------|
D|---555------------777---------------555--------------------|
A|---333------------777---------------555--------------------|
E|------------------555---------------333--------------------|

E|-----------------------------------------------------------|
B|---10-12-13---12-13----------------------------------------|
G|--------------------14------12-14-10--10-12-10------------|
D|-----------------------------------------------------------|
A|-----------------------------------------------------------|
E|-----------------------------------------------------------|



Verse 
     

E|--------------------------------------|
B|--------------------------------------|
G|---555--------------------------------|     x2
D|---555------777------555------333-----|
A|---333------777------555------333-----|
E|------------555------333------111-----|
  

Pre-Chorus
E|--------------------------------------------------11111111---11111111----|
B|--------------------------------------------------11111111---11111111----|
G|-------------------------5555--------2222---------22222222---11111111----|
D|-------------------------5555--5555--2222--5555---33333333---33333333----|
A|---33333333--55555555----3333--2222--0000--5555---33333333---33333333----|
E|---11111111--33333333----------------------3333---11111111---11111111----|
     ********  ********


Chorus

E|-----------------------------------------------------------|
B|-----------------------------------------------------------|
G|---5555------------------5555------------------------------|
D|---5555--5555--33333333--5555--5555--33333333--------------|
A|---3333--5555--33333333--3333--5555--33333333--------------|
E|---------3333--11111111--------3333--11111111--------------|

E|-----------------------------------------------------------|
B|-----------------------------------------------------------|
G|-----------------------------------------------------------|
D|---7777--5555--33333333--7777--3333--5555--77--33----------|
A|---7777--5555--33333333--7777--3333--5555--77--33----------|
E|---5555--3333--11111111--5555--1111--3333--55--11----------|




Second Solo

E|-------------------------------------------------------------------------|
B|-----------------------------------------------------------8-------------|
G|-------------------5-------7-5-----------------------5-------------------|
D|-------------5---------------------------------5-------7-5---------------|
A|---------3-7---7-5----7--5-----------------3/7---7-5---------------------|
E|---5-3/5--------------------------------5-------------------------------|

E|---12---------------------------------------------12-12/15/12------------|
B|------15-13-12--12/13/12------13-13--12-12----13-------------13---------|
G|--------------------------14---14-14--12-12------------------------------|
D|-------------------------------------------------------------------------|
A|-------------------------------------------------------------------------|
E|-------------------------------------------------------------------------|

E|------8-8/10/8-----------10-10/13/10-------------------------------------|
B|---10----------10-----12-------------12----12-13-12----------------13----|
G|----------------------------------------------------12-14-12-------------|
D|-------------------------------------------------------------12-14-------|
A|-------------------------------------------------------------------------|
E|-------------------------------------------------------------------------|



Chorus

E|-----------------------------------------------------------|
B|-----------------------------------------------------------|
G|---5555------------------5555------------------------------|
D|---5555--5555--33333333--5555--5555--33333333--------------|
A|---3333--5555--33333333--3333--5555--33333333--------------|
E|---------3333--11111111--------3333--11111111--------------|

E|-----------------------------------------------------------|
B|-----------------------------------------------------------|
G|-----------------------------------------------------------|
D|---7777--5555--33333333--7777--3333--5555--77--33----------|
A|---7777--5555--33333333--7777--3333--5555--77--33----------|
E|---5555--3333--11111111--5555--1111--3333--55--11----------|
Tap to rate this tab
 
# A B C D E F G H I J K L M N O P Q R S T U V W X Y Z