Song name
# A B C D E F G H I J K L M N O P Q R S T U V W X Y Z

Sparks The Rescue - Worst Thing Ive Been Cursed With tab

Song: Worst Thing I've Been Cursed With
Band: Sparks The Rescue
Album: Worst Thing I've Been Cursed With
Tabbed By: Crazylegs11

/= slide
*= Palm Mute
~= Let Hang
" "= Tremolo Pick
h= Hammer On
p= Pull Off
b= Bend
r= Release
X= Mute Strings

*Comment and rate please :) I'm pretty sure this tab is perfect, but comment with any 
corrections. Enjoy!

Intro

Guitar 1
e|------------------------------------------------|
B|------------------------------------------------|
G|----7/10-7-----7/12-10------7/10-5-----5/7-5----|
D|-7h8------8-7h8-------10-7h8------8-7h8-----8-7-| X2 (let hang 2nd time)
A|------------------------------------------------|
E|------------------------------------------------|

Guitar 2
e|----------------------------|
B|----------------------------|
G|-777777-555555-333333-55555-|
D|-777777-555555-333333-55555-| X2
A|-555555-333333-111111-33333-|
E|----------------------------|

Verse

Guitar 1 (Comes in on 3rd time through Guitar 2's part)
e|-------------------------------------|
B|-------------------------------------|
G|-------------------------------------|
D|-77777777-55555555-33333333-55555555-| X2
A|-55555555-33333333-11111111-33333333-|
E|-------------------------------------|
   ******** ******** ******** ********

Guitar 2
e|-------------|
B|-------------|
G|-7~-5~-3~-5~-|
D|-7~-5~-3~-5~-| X4
A|-5~-3~-1~-3~-|
E|-------------|

Chorus

Guitar 1 & 2 Part 1
e|-----------------------|
B|-----------------------|
G|-10XX------------------|
D|-10XX-10X-12-1212-1010-| X2
A|--8XX-10X-12-1212-1010-|
E|-------8X-10-1010--8 8-|

Guitar 1 & 2 Part 2
e|--------------------------------|
B|--------------------------------|
G|-3XX----7-77-55-3XX----55555555-|
D|-3XX-3X-7-77-55-3XX-3X-55555555-|
A|-1XX-3X-5-55-33-1XX-3X-33333333-|
E|-----1X-------------1X----------|

*Repeat Intro*
*Repeat Verse*
*Repeat Chorus Part 1 & 2*

Chorus Part 3

Guitar 1 & 2
e|-------------------|
B|-------------------|
G|-3333-----7777-555-|
D|-3333-333-7777-555-| X2
A|-1111-333-5555-333-|
E|------111----------|

*Repeat Chorus Part 2*
*Repeat Intro*

Solo (I think both guitars are playing this)

e|----------------------------------------------------------------|
B|----------------------------------------------------------------|
G|-"14"-"12"-----"14"-12"------------------------------17---------|
D|-----------"15"--------"15"-14h15p14h15p14------17b19--19-17-15-|
A|------------------------------------------15/17-----------------|
E|----------------------------------------------------------------|

e|-----------------------------------------------------------|
B|-----------------------------------------------------------|
G|-17-14---17-14----17-14---17b19r17-15-14--------17-14/12---|
D|-------15------15-------15--------------15-17b19--------15-|
A|-----------------------------------------------------------|
E|-----------------------------------------------------------|

e|-----------------------------|
B|-----------------------------|
G|-----------------------------|
D|-12h14h15-14h15h17-15h17h19~-|
A|-----------------------------|
E|-----------------------------|

Bridge

Guitar 1 & 2
e|---------------------------------------------------------------------------|
B|---------------------------------------------------------------------------|
G|-555555-777777-333333--------555555-777777-333333333333-10~-5~-3~-33333333-|
D|-555555-777777-333333-333333-555555-777777-333333333333-10~-5~-3~-33333333-|
A|-333333-555555-111111-333333-333333-555555-111111111111--8~-3~-1~-11111111-|
E|----------------------111111-----------------------------------------------|
                                                                    ********

*Repeat Chorus Part 1*
*Repeat Chorus Part 2*
*Repeat Chorus Part 3*
*End Chorus Part 3 by sliding up to e|----------|
                                    B|----------|
                                    G|-77777777-|
                                    D|-77777777-|
                                    A|-55555555-|
                                    E|----------|

*Repeat Intro Riff 3X To End*
Tap to rate this tab
 
# A B C D E F G H I J K L M N O P Q R S T U V W X Y Z