Song name
# A B C D E F G H I J K L M N O P Q R S T U V W X Y Z

Sparks The Rescue - Saturday Skin tab

-------------------------------------------------------------------------------
			     Saturday Skin - Sparks The Rescue
-------------------------------------------------------------------------------
Tabbed by: David Pait (twitter: @DJPait)
Email:

Tuning: Standard (EADGBe)

Intro pt 1:
Guitar 1
e|---------------------------------------------------------------------------|
B|---------------------------------------------------------------------------|
G|---------------------------------------------------------------------------|
D|-5~--------------7~-------9999999------------------------------------------|
A|-5~--------------7~-------9999999------------------------------------------|
E|-3~--------------5~-------7777777------------------------------------------|
                            *******

Guitar 2
e|-3-3-3-3-2-2-2-2----0---0---2---2------------------------------------------|
B|--3-3-3-3-3-3-3-3--2-2-2-2-3-3-3-3-----------------------------------------|
G|------------------2---2---4---4--------------------------------------------|
D|---------------------------------------------------------------------------|
A|---------------------------------------------------------------------------|
E|---------------------------------------------------------------------------|

Intro pt 2:
Guitar 1
e|---------------------------------------------------------------------------|
B|---------------------------------------------------------------------------|
G|----------7-7-7-7-------------------------------7-7-7-7--------------------|
D|-5-5-5-5--7-7-7-7--7-7-7-7-7--9-9-9-9--5-5-5-5--7-7-7-7--7-7-7-7-7-7-7-7---|
A|-5-5-5-5--5-5-5-5--7-7-7-7-7--9-9-9-9--5-5-5-5--5-5-5-5--7-7-7-7-7-7-7-7---|
E|-3-3-3-3-----------5-5-5-5-5--7-7-7-7--3-3-3-3-----------5-5-5-5-5-5-5-5---|


Guitar 2
e|-3-3-3-3-2-2-2-2----0---0---2---2------3-3-3-3-2-2-2-2----0---0---0---0----|
B|--3-3-3-3-3-3-3-3--2-2-2-2-3-3-3-3------3-3-3-3-3-3-3-3--2-2-2-2-2-2-2-2---|
G|------------------2---2---4---4-------------------------2---2---2---2------|
D|---------------------------------------------------------------------------|
A|---------------------------------------------------------------------------|
E|---------------------------------------------------------------------------|


Verse pt 1: (x2)
Guitar 1
e|---------------------------------------------------------------------------|
B|---------------------------------------------------------------------------|
G|-7~------------------------------------------------------------------------|
D|-7~----------------4~--------5~--------------------------------------------|
A|-5~----------------4~--------5~--------------------------------------------|
E|-------------------2~--------3~--------------------------------------------|

Verse pt 2: (x2)
Guitar 1
e|---------------------------------------------------------------------------|
B|---------------------------------------------------------------------------|
G|-7777777777777777----------------------------------------------------------|
D|-7777777777777777--44444444--55555555--------------------------------------|
A|-5555555555555555--44444444--55555555--------------------------------------|
E|-------------------22222222--33333333--------------------------------------|
   ****************  ********  ********


Pre-Chorus:
Guitar 1
e|---------------------------------------------------------------------------|
B|---------------------------------------------------------------------------|
G|---------4-4~----2-2-2-2-2-2-2-2-2-2-2-2-2-2-2-2---------------------------|
D|-2-2~----4-4~----2-2-2-2-2-2-2-2-2-2-2-2-2-2-2-2---------------------------|
A|-2-2~----2-2~----0-0-0-0-0-0-0-0-0-0-0-0-0-0-0-0---------------------------|
E|-0-0~----------------------------------------------------------------------|

Pre-Chorus:
Guitar 2 (octave on 12th fret)
e|---------------------------------------------------------------------------|
B|---------------------------------------------------------------------------|
G|--------------------------------1414141414141414---------------------------|
D|---------------------------------------------------------------------------|
A|--------------------------------1212121212121212---------------------------|
E|---------------------------------------------------------------------------|

Chorus:
Guitar 1: repeat Intro pt 2 (x2)
Guitar 2: repeat Intro pt 2 (x2)

*******************
Verse pt 1
Verse pt 2
Pre-Chorus
Chorus

*******************
Bridge pt 1: (x2)
Guitar 1&2
(Dont it seem...)
e|------------------------------------------------------------------------------|
B|------------------------------------------------------------------------------|
G|---------------------7\222222--7\222222---------------------------------------|
D|-9\555555--9\555555--7\222222--7\222222---------------------------------------|
A|-9\555555--9\555555--5\000000--5\000000---------------------------------------|
E|-7\333333--7\333333-----------------------------------------------------------|
     ******    ******    ******    ******

Bridge pt 2: (x2) (No Palm Mutes)
Guitar 1&2
e|------------------------------------------------------------------------------|
B|------------------------------------------------------------------------------|
G|---------------------7\222222--7\222222---------------------------------------|
D|-9\555555--9\555555--7\222222--7\222222---------------------------------------|
A|-9\555555--9\555555--5\000000--5\000000---------------------------------------|
E|-7\333333--7\333333-----------------------------------------------------------|



**********
Intro pt 1
Chorus (x2)

**********
Ending note:
e|-----------|
B|-----------|
G|-----------|
D|-7~--------|
A|-7~--------|
E|-5~--------|



************************************

| *   palm mute
| /   slide up
| \   slide down
| h   hammer-on
| p   pull-off
| ~   let ring
| +   harmonic
| x   Mute note
| b   Bend
| pb  Pre-bend
| br  Bend release
| pbr Pre-bend release
| brb Bend release bend

************************************
Tap to rate this tab
 
# A B C D E F G H I J K L M N O P Q R S T U V W X Y Z